  0
SECTION
  2
HEADER
  9
$ACADVER
  1
AC1032
  9
$ACADMAINTVER
 90
        4
  9
$DWGCODEPAGE
  3
ANSI_1251
  9
$REQUIREDVERSIONS
160
                 0
  9
$INSBASE
 10
0.0
 20
0.0
 30
0.0
  9
$EXTMIN
 10
0.0
 20
0.0
 30
0.0
  9
$EXTMAX
 10
210.0
 20
297.0
 30
0.0
  9
$LIMMIN
 10
0.0
 20
0.0
  9
$LIMMAX
 10
210.0
 20
297.0
  9
$ORTHOMODE
 70
     0
  9
$REGENMODE
 70
     1
  9
$FILLMODE
 70
     1
  9
$QTEXTMODE
 70
     0
  9
$MIRRTEXT
 70
     1
  9
$LTSCALE
 40
1.0
  9
$ATTMODE
 70
     1
  9
$TEXTSIZE
 40
3.5
  9
$TRACEWID
 40
1.0
  9
$TEXTSTYLE
  7
Standard
  9
$CLAYER
  8
0
  9
$CELTYPE
  6
ByLayer
  9
$CECOLOR
 62
   256
  9
$CELTSCALE
 40
1.0
  9
$DISPSILH
 70
     0
  9
$DIMSCALE
 40
1.0
  9
$DIMASZ
 40
3.0
  9
$DIMEXO
 40
1.0
  9
$DIMDLI
 40
3.75
  9
$DIMRND
 40
0.0
  9
$DIMDLE
 40
0.0
  9
$DIMEXE
 40
2.0
  9
$DIMTP
 40
0.0
  9
$DIMTM
 40
0.0
  9
$DIMTXT
 40
3.5
  9
$DIMCEN
 40
2.5
  9
$DIMTSZ
 40
0.0
  9
$DIMTOL
 70
     0
  9
$DIMLIM
 70
     0
  9
$DIMTIH
 70
     1
  9
$DIMTOH
 70
     1
  9
$DIMSE1
 70
     0
  9
$DIMSE2
 70
     0
  9
$DIMTAD
 70
     1
  9
$DIMZIN
 70
     0
  9
$DIMBLK
  1

  9
$DIMASO
 70
     1
  9
$DIMSHO
 70
     1
  9
$DIMPOST
  1

  9
$DIMAPOST
  1

  9
$DIMALT
 70
     0
  9
$DIMALTD
 70
     3
  9
$DIMALTF
 40
0.0393700787
  9
$DIMLFAC
 40
1.0
  9
$DIMTOFL
 70
     1
  9
$DIMTVP
 40
0.0
  9
$DIMTIX
 70
     0
  9
$DIMSOXD
 70
     0
  9
$DIMSAH
 70
     0
  9
$DIMBLK1
  1

  9
$DIMBLK2
  1

  9
$DIMSTYLE
  2
ISO-25
  9
$DIMCLRD
 70
     0
  9
$DIMCLRE
 70
     0
  9
$DIMCLRT
 70
     0
  9
$DIMTFAC
 40
1.0
  9
$DIMGAP
 40
1.524
  9
$DIMJUST
 70
     0
  9
$DIMSD1
 70
     0
  9
$DIMSD2
 70
     0
  9
$DIMTOLJ
 70
     0
  9
$DIMTZIN
 70
     0
  9
$DIMALTZ
 70
     0
  9
$DIMALTTZ
 70
     0
  9
$DIMUPT
 70
     0
  9
$DIMDEC
 70
     1
  9
$DIMTDEC
 70
     1
  9
$DIMALTU
 70
     2
  9
$DIMALTTD
 70
     3
  9
$DIMTXSTY
  7
Standard
  9
$DIMAUNIT
 70
     0
  9
$DIMADEC
 70
     2
  9
$DIMALTRND
 40
0.0
  9
$DIMAZIN
 70
     0
  9
$DIMDSEP
 70
    44
  9
$DIMATFIT
 70
     3
  9
$DIMFRAC
 70
     0
  9
$DIMLDRBLK
  1

  9
$DIMLUNIT
 70
     2
  9
$DIMLWD
 70
    -2
  9
$DIMLWE
 70
    -2
  9
$DIMTMOVE
 70
     0
  9
$DIMFXL
 40
1.0
  9
$DIMFXLON
 70
     0
  9
$DIMJOGANG
 40
0.7853981634
  9
$DIMTFILL
 70
     0
  9
$DIMTFILLCLR
 70
     0
  9
$DIMARCSYM
 70
     0
  9
$DIMLTYPE
  6

  9
$DIMLTEX1
  6

  9
$DIMLTEX2
  6

  9
$DIMTXTDIRECTION
 70
     0
  9
$LUNITS
 70
     2
  9
$LUPREC
 70
     2
  9
$SKETCHINC
 40
1.0
  9
$FILLETRAD
 40
10.0
  9
$AUNITS
 70
     0
  9
$AUPREC
 70
     2
  9
$MENU
  1
.
  9
$ELEVATION
 40
0.0
  9
$PELEVATION
 40
0.0
  9
$THICKNESS
 40
0.0
  9
$LIMCHECK
 70
     0
  9
$CHAMFERA
 40
0.0
  9
$CHAMFERB
 40
0.0
  9
$CHAMFERC
 40
0.0
  9
$CHAMFERD
 40
0.0
  9
$SKPOLY
 70
     0
  9
$TDCREATE
 40
2459303.603638576
  9
$TDUCREATE
 40
2459303.478638576
  9
$TDUPDATE
 40
2459303.603639132
  9
$TDUUPDATE
 40
2459303.478639132
  9
$TDINDWG
 40
0.0000000116
  9
$TDUSRTIMER
 40
0.0000000116
  9
$USRTIMER
 70
     1
  9
$ANGBASE
 50
0.0
  9
$ANGDIR
 70
     0
  9
$PDMODE
 70
     0
  9
$PDSIZE
 40
-1.0
  9
$PLINEWID
 40
0.0
  9
$SPLFRAME
 70
     0
  9
$SPLINETYPE
 70
     6
  9
$SPLINESEGS
 70
     8
  9
$HANDSEED
  5
1B8
  9
$SURFTAB1
 70
     6
  9
$SURFTAB2
 70
     6
  9
$SURFTYPE
 70
     6
  9
$SURFU
 70
     6
  9
$SURFV
 70
     6
  9
$UCSBASE
  2

  9
$UCSNAME
  2

  9
$UCSORG
 10
0.0
 20
0.0
 30
0.0
  9
$UCSXDIR
 10
1.0
 20
0.0
 30
0.0
  9
$UCSYDIR
 10
0.0
 20
1.0
 30
0.0
  9
$UCSORTHOREF
  2

  9
$UCSORTHOVIEW
 70
     0
  9
$UCSORGTOP
 10
0.0
 20
0.0
 30
0.0
  9
$UCSORGBOTTOM
 10
0.0
 20
0.0
 30
0.0
  9
$UCSORGLEFT
 10
0.0
 20
0.0
 30
0.0
  9
$UCSORGRIGHT
 10
0.0
 20
0.0
 30
0.0
  9
$UCSORGFRONT
 10
0.0
 20
0.0
 30
0.0
  9
$UCSORGBACK
 10
0.0
 20
0.0
 30
0.0
  9
$PUCSBASE
  2

  9
$PUCSNAME
  2

  9
$PUCSORG
 10
0.0
 20
0.0
 30
0.0
  9
$PUCSXDIR
 10
1.0
 20
0.0
 30
0.0
  9
$PUCSYDIR
 10
0.0
 20
1.0
 30
0.0
  9
$PUCSORTHOREF
  2

  9
$PUCSORTHOVIEW
 70
     0
  9
$PUCSORGTOP
 10
0.0
 20
0.0
 30
0.0
  9
$PUCSORGBOTTOM
 10
0.0
 20
0.0
 30
0.0
  9
$PUCSORGLEFT
 10
0.0
 20
0.0
 30
0.0
  9
$PUCSORGRIGHT
 10
0.0
 20
0.0
 30
0.0
  9
$PUCSORGFRONT
 10
0.0
 20
0.0
 30
0.0
  9
$PUCSORGBACK
 10
0.0
 20
0.0
 30
0.0
  9
$USERI1
 70
     0
  9
$USERI2
 70
     0
  9
$USERI3
 70
     0
  9
$USERI4
 70
     0
  9
$USERI5
 70
     0
  9
$USERR1
 40
0.0
  9
$USERR2
 40
0.0
  9
$USERR3
 40
0.0
  9
$USERR4
 40
0.0
  9
$USERR5
 40
0.0
  9
$WORLDVIEW
 70
     1
  9
$SHADEDGE
 70
     3
  9
$SHADEDIF
 70
    70
  9
$TILEMODE
 70
     1
  9
$MAXACTVP
 70
    64
  9
$PINSBASE
 10
0.0
 20
0.0
 30
0.0
  9
$PLIMCHECK
 70
     0
  9
$PEXTMIN
 10
1.0000000000E+20
 20
1.0000000000E+20
 30
1.0000000000E+20
  9
$PEXTMAX
 10
-1.0000000000E+20
 20
-1.0000000000E+20
 30
-1.0000000000E+20
  9
$PLIMMIN
 10
0.0
 20
0.0
  9
$PLIMMAX
 10
420.0
 20
297.0
  9
$UNITMODE
 70
     0
  9
$VISRETAIN
 70
     1
  9
$PLINEGEN
 70
     0
  9
$PSLTSCALE
 70
     1
  9
$TREEDEPTH
 70
  3020
  9
$CMLSTYLE
  2
Standard
  9
$CMLJUST
 70
     0
  9
$CMLSCALE
 40
20.0
  9
$PROXYGRAPHICS
 70
     1
  9
$MEASUREMENT
 70
     1
  9
$CELWEIGHT
370
    -1
  9
$ENDCAPS
280
     0
  9
$JOINSTYLE
280
     0
  9
$LWDISPLAY
290
     1
  9
$INSUNITS
 70
     4
  9
$HYPERLINKBASE
  1

  9
$STYLESHEET
  1

  9
$XEDIT
290
     1
  9
$CEPSNTYPE
380
     0
  9
$PSTYLEMODE
290
     1
  9
$FINGERPRINTGUID
  2
{47be3262-9997-4c44-839f-03c1ea280f9c}
  9
$VERSIONGUID
  2
{FAEB1C32-E019-11D5-929B-00C0DF256EC4}
  9
$EXTNAMES
290
     1
  9
$PSVPSCALE
 40
0.0
  9
$OLESTARTUP
290
     0
  9
$SORTENTS
280
   127
  9
$INDEXCTL
280
     0
  9
$HIDETEXT
280
     1
  9
$XCLIPFRAME
280
     2
  9
$HALOGAP
280
     0
  9
$OBSCOLOR
 70
   257
  9
$OBSLTYPE
280
     0
  9
$INTERSECTIONDISPLAY
280
     0
  9
$INTERSECTIONCOLOR
 70
   257
  9
$DIMASSOC
280
     2
  9
$PROJECTNAME
  1

  9
$CAMERADISPLAY
290
     0
  9
$LENSLENGTH
 40
50.0
  9
$CAMERAHEIGHT
 40
0.0
  9
$STEPSPERSEC
 40
2.0
  9
$STEPSIZE
 40
6.0
  9
$3DDWFPREC
 40
2.0
  9
$PSOLWIDTH
 40
5.0
  9
$PSOLHEIGHT
 40
80.0
  9
$LOFTANG1
 40
1.5707963268
  9
$LOFTANG2
 40
1.5707963268
  9
$LOFTMAG1
 40
0.0
  9
$LOFTMAG2
 40
0.0
  9
$LOFTPARAM
 70
     7
  9
$LOFTNORMALS
280
     1
  9
$LATITUDE
 40
37.795
  9
$LONGITUDE
 40
-122.394
  9
$NORTHDIRECTION
 40
0.0
  9
$TIMEZONE
 70
 -8000
  9
$LIGHTGLYPHDISPLAY
280
     1
  9
$TILEMODELIGHTSYNCH
280
     1
  9
$CMATERIAL
347
44
  9
$SOLIDHIST
280
     0
  9
$SHOWHIST
280
     1
  9
$DWFFRAME
280
     2
  9
$DGNFRAME
280
     2
  9
$REALWORLDSCALE
290
     1
  9
$INTERFERECOLOR
 62
   256
  9
$CSHADOW
280
     0
  9
$SHADOWPLANELOCATION
 40
0.0
  0
ENDSEC
  0
SECTION
  2
CLASSES
  0
CLASS
  1
ACDBDICTIONARYWDFLT
  2
AcDbDictionaryWithDefault
  3
ObjectDBX Classes
 90
        0
 91
        3
280
     0
281
     0
  0
CLASS
  1
VISUALSTYLE
  2
AcDbVisualStyle
  3
ObjectDBX Classes
 90
     4095
 91
        3
280
     0
281
     0
  0
CLASS
  1
MATERIAL
  2
AcDbMaterial
  3
ObjectDBX Classes
 90
     1153
 91
        3
280
     0
281
     0
  0
CLASS
  1
SCALE
  2
AcDbScale
  3
ObjectDBX Classes
 90
     1153
 91
        3
280
     0
281
     0
  0
CLASS
  1
TABLESTYLE
  2
AcDbTableStyle
  3
ObjectDBX Classes
 90
     4095
 91
        3
280
     0
281
     0
  0
CLASS
  1
MLEADERSTYLE
  2
AcDbMLeaderStyle
  3
ACDB_MLEADERSTYLE_CLASS
 90
     4095
 91
        3
280
     0
281
     0
  0
CLASS
  1
SUN
  2
AcDbSun
  3
SCENEOE
 90
     1153
 91
        3
280
     0
281
     0
  0
CLASS
  1
DICTIONARYVAR
  2
AcDbDictionaryVar
  3
ObjectDBX Classes
 90
        0
 91
        3
280
     0
281
     0
  0
CLASS
  1
CELLSTYLEMAP
  2
AcDbCellStyleMap
  3
ObjectDBX Classes
 90
     1152
 91
        3
280
     0
281
     0
  0
ENDSEC
  0
SECTION
  2
TABLES
  0
TABLE
  2
VPORT
  5
8
330
0
100
AcDbSymbolTable
 70
     1
  0
VPORT
  5
29
330
8
100
AcDbSymbolTableRecord
100
AcDbViewportTableRecord
  2
*Active
 70
     0
 10
0.0
 20
0.0
 11
1.0
 21
1.0
 12
105.0
 22
148.5
 13
0.0
 23
0.0
 14
10.0
 24
10.0
 15
10.0
 25
10.0
 16
0.0
 26
0.0
 36
1.0
 17
0.0
 27
0.0
 37
0.0
 40
297.0
 41
0.7070707071
 42
50.0
 43
0.0
 44
0.0
 50
0.0
 51
0.0
 71
     0
 72
  2000
 73
     1
 74
     3
 75
     0
 76
     0
 77
     0
 78
     0
281
     0
 65
     1
110
0.0
120
0.0
130
0.0
111
1.0
121
0.0
131
0.0
112
0.0
122
1.0
132
0.0
 79
     0
146
0.0
348
2F
 60
     3
 61
     5
292
     1
282
     1
141
0.0
142
0.0
 63
   250
361
6D
  0
ENDTAB
  0
TABLE
  2
LTYPE
  5
5
330
0
100
AcDbSymbolTable
 70
     6
  0
LTYPE
  5
14
330
5
100
AcDbSymbolTableRecord
100
AcDbLinetypeTableRecord
  2
ByBlock
 70
     0
  3

 72
    65
 73
     0
 40
0.0
  0
LTYPE
  5
15
330
5
100
AcDbSymbolTableRecord
100
AcDbLinetypeTableRecord
  2
ByLayer
 70
     0
  3

 72
    65
 73
     0
 40
0.0
  0
LTYPE
  5
16
330
5
100
AcDbSymbolTableRecord
100
AcDbLinetypeTableRecord
  2
Continuous
 70
     0
  3
Solid line
 72
    65
 73
     0
 40
0.0
  0
LTYPE
  5
6E
330
5
100
AcDbSymbolTableRecord
100
AcDbLinetypeTableRecord
  2
HIDDEN
 70
     0
  3
Hidden __ __ __ __ __ __ __ __ __ __ __ __ __ __
 72
    65
 73
     2
 40
1.905
 49
1.27
 74
     0
 49
-0.635
 74
     0
  0
LTYPE
  5
6F
330
5
100
AcDbSymbolTableRecord
100
AcDbLinetypeTableRecord
  2
PHANTOM
 70
     0
  3
Phantom ______  __  __  ______  __  __  ______
 72
    65
 73
     6
 40
12.7
 49
6.35
 74
     0
 49
-1.27
 74
     0
 49
1.27
 74
     0
 49
-1.27
 74
     0
 49
1.27
 74
     0
 49
-1.27
 74
     0
  0
LTYPE
  5
70
330
5
100
AcDbSymbolTableRecord
100
AcDbLinetypeTableRecord
  2
CENTER
 70
     0
  3
Center ____ _ ____ _ ____ _ ____ _ ____ _ ____
 72
    65
 73
     4
 40
10.16
 49
6.35
 74
     0
 49
-1.27
 74
     0
 49
1.27
 74
     0
 49
-1.27
 74
     0
  0
LTYPE
  5
71
330
5
100
AcDbSymbolTableRecord
100
AcDbLinetypeTableRecord
  2
CENTERX2
 70
     0
  3
Center (2x) ________  __  ________  __  _____
 72
    65
 73
     4
 40
20.32
 49
12.7
 74
     0
 49
-2.54
 74
     0
 49
2.54
 74
     0
 49
-2.54
 74
     0
  0
LTYPE
  5
72
330
5
100
AcDbSymbolTableRecord
100
AcDbLinetypeTableRecord
  2
DOT2
 70
     0
  3
Dot (.5x) ........................................
 72
    65
 73
     2
 40
0.635
 49
0.0
 74
     0
 49
-0.635
 74
     0
  0
ENDTAB
  0
TABLE
  2
LAYER
  5
2
330
0
100
AcDbSymbolTable
 70
     4
  0
LAYER
  5
10
330
2
100
AcDbSymbolTableRecord
100
AcDbLayerTableRecord
  2
0
 70
     0
 62
     7
  6
Continuous
370
    -3
390
F
347
46
348
0
  0
LAYER
  5
73
330
2
100
AcDbSymbolTableRecord
100
AcDbLayerTableRecord
  2
ЧЕРТЕЖ
 70
     0
 62
     7
  6
Continuous
370
    -3
390
F
347
46
348
0
  0
LAYER
  5
74
330
2
100
AcDbSymbolTableRecord
100
AcDbLayerTableRecord
  2
ОСНОВНАЯ_НАДПИСЬ
 70
     0
 62
     7
  6
Continuous
370
    -3
390
F
347
46
348
0
  0
LAYER
  5
75
330
2
100
AcDbSymbolTableRecord
100
AcDbLayerTableRecord
  2
SLD-0
 70
     0
 62
   179
  6
Continuous
370
    -3
390
F
347
46
348
0
  0
ENDTAB
  0
TABLE
  2
STYLE
  5
3
330
0
100
AcDbSymbolTable
 70
     1
  0
STYLE
  5
11
330
3
100
AcDbSymbolTableRecord
100
AcDbTextStyleTableRecord
  2
Standard
 70
     0
 40
0.0
 41
1.0
 50
0.0
 71
     0
 42
3.5
  3
txt
  4

  0
ENDTAB
  0
TABLE
  2
VIEW
  5
6
330
0
100
AcDbSymbolTable
 70
     0
  0
ENDTAB
  0
TABLE
  2
UCS
  5
7
330
0
100
AcDbSymbolTable
 70
     0
  0
ENDTAB
  0
TABLE
  2
APPID
  5
9
330
0
100
AcDbSymbolTable
 70
     1
  0
APPID
  5
12
330
9
100
AcDbSymbolTableRecord
100
AcDbRegAppTableRecord
  2
ACAD
 70
     0
  0
ENDTAB
  0
TABLE
  2
DIMSTYLE
  5
A
330
0
100
AcDbSymbolTable
 70
     1
100
AcDbDimStyleTable
  0
DIMSTYLE
105
27
330
A
100
AcDbSymbolTableRecord
100
AcDbDimStyleTableRecord
  2
ISO-25
 70
     0
 41
2.5
 42
0.625
 43
3.75
 44
1.25
 73
     0
 74
     0
 77
     1
 78
     8
140
2.5
141
2.5
143
0.0393700787
147
0.625
171
     3
172
     1
178
     0
271
     2
272
     2
274
     3
278
    44
283
     0
284
     8
340
11
  0
ENDTAB
  0
TABLE
  2
BLOCK_RECORD
  5
1
330
0
100
AcDbSymbolTable
 70
     1
  0
BLOCK_RECORD
  5
1F
330
1
100
AcDbSymbolTableRecord
100
AcDbBlockTableRecord
  2
*Model_Space
340
22
 70
     0
280
     1
281
     0
  0
BLOCK_RECORD
  5
1B
330
1
100
AcDbSymbolTableRecord
100
AcDbBlockTableRecord
  2
*Paper_Space
340
1E
 70
     0
280
     1
281
     0
  0
BLOCK_RECORD
  5
23
330
1
100
AcDbSymbolTableRecord
100
AcDbBlockTableRecord
  2
*Paper_Space0
340
26
 70
     0
280
     1
281
     0
  0
ENDTAB
  0
ENDSEC
  0
SECTION
  2
BLOCKS
  0
BLOCK
  5
20
330
1F
100
AcDbEntity
  8
0
100
AcDbBlockBegin
  2
*Model_Space
 70
     0
 10
0.0
 20
0.0
 30
0.0
  3
*Model_Space
  1

  0
ENDBLK
  5
21
330
1F
100
AcDbEntity
  8
0
100
AcDbBlockEnd
  0
BLOCK
  5
1C
330
1B
100
AcDbEntity
 67
     1
  8
0
100
AcDbBlockBegin
  2
*Paper_Space
 70
     0
 10
0.0
 20
0.0
 30
0.0
  3
*Paper_Space
  1

  0
ENDBLK
  5
1D
330
1B
100
AcDbEntity
 67
     1
  8
0
100
AcDbBlockEnd
  0
BLOCK
  5
24
330
23
100
AcDbEntity
  8
0
100
AcDbBlockBegin
  2
*Paper_Space0
 70
     0
 10
0.0
 20
0.0
 30
0.0
  3
*Paper_Space0
  1

  0
ENDBLK
  5
25
330
23
100
AcDbEntity
  8
0
100
AcDbBlockEnd
  0
ENDSEC
  0
SECTION
  2
ENTITIES
  0
LWPOLYLINE
  5
76
330
1F
100
AcDbEntity
  8
0
  6
Continuous
 62
     7
370
    25
100
AcDbPolyline
 90
        3
 70
   128
 43
0.0
 10
95.7417199955
 20
201.3216829578
 10
96.0856683313
 20
201.122974483
 10
96.4098818439
 20
200.9355525874
  0
LWPOLYLINE
  5
77
330
1F
100
AcDbEntity
  8
0
  6
Continuous
 62
     7
370
    25
100
AcDbPolyline
 90
        3
 70
   128
 43
0.0
 10
95.7417199955
 20
200.0516829578
 10
96.0858605338
 20
199.8529151191
 10
96.4098818571
 20
199.6655554913
  0
LWPOLYLINE
  5
78
330
1F
100
AcDbEntity
  8
0
  6
Continuous
 62
     7
370
    25
100
AcDbPolyline
 90
        3
 70
   128
 43
0.0
 10
95.7417199955
 20
198.7816829578
 10
96.0860536882
 20
198.582855746
 10
96.4098818753
 20
198.3955584261
  0
LWPOLYLINE
  5
79
330
1F
100
AcDbEntity
  8
0
  6
Continuous
 62
     7
370
    25
100
AcDbPolyline
 90
        3
 70
   128
 43
0.0
 10
95.7417199955
 20
197.5116829578
 10
96.0862477947
 20
197.3127963637
 10
96.4098818984
 20
197.1255613919
  0
LWPOLYLINE
  5
7A
330
1F
100
AcDbEntity
  8
0
  6
Continuous
 62
     7
370
    25
100
AcDbPolyline
 90
        3
 70
   128
 43
0.0
 10
95.7417199955
 20
196.2416829578
 10
96.0864428533
 20
196.0427369723
 10
96.4098819264
 20
195.8555643888
  0
LWPOLYLINE
  5
7B
330
1F
100
AcDbEntity
  8
0
  6
Continuous
 62
     7
370
    25
100
AcDbPolyline
 90
        3
 70
   128
 43
0.0
 10
95.7417199955
 20
194.9716829578
 10
96.0866388642
 20
194.7726775717
 10
96.4098819591
 20
194.5855674169
  0
LWPOLYLINE
  5
7C
330
1F
100
AcDbEntity
  8
0
  6
Continuous
 62
     7
370
    25
100
AcDbPolyline
 90
        3
 70
   128
 43
0.0
 10
95.7417199955
 20
193.7016829578
 10
96.0868358275
 20
193.502618162
 10
96.4098819966
 20
193.3155704763
  0
LWPOLYLINE
  5
7D
330
1F
100
AcDbEntity
  8
0
  6
Continuous
 62
     7
370
    25
100
AcDbPolyline
 90
        3
 70
   128
 43
0.0
 10
95.7417199955
 20
192.4316829578
 10
96.0870337434
 20
192.2325587431
 10
96.4098820388
 20
192.0455735672
  0
LWPOLYLINE
  5
7E
330
1F
100
AcDbEntity
  8
0
  6
Continuous
 62
     7
370
    25
100
AcDbPolyline
 90
        3
 70
   128
 43
0.0
 10
95.7417199955
 20
191.1616829578
 10
96.0872326118
 20
190.9624993151
 10
96.4098820855
 20
190.7755766897
  0
LWPOLYLINE
  5
7F
330
1F
100
AcDbEntity
  8
0
  6
Continuous
 62
     7
370
    25
100
AcDbPolyline
 90
        3
 70
   128
 43
0.0
 10
95.7417199955
 20
189.8916829578
 10
96.087432433
 20
189.692439878
 10
96.4098821369
 20
189.5055798438
  0
LWPOLYLINE
  5
80
330
1F
100
AcDbEntity
  8
0
  6
Continuous
 62
     7
370
    25
100
AcDbPolyline
 90
        3
 70
   128
 43
0.0
 10
95.7417199955
 20
188.6216829578
 10
96.087633207
 20
188.4223804318
 10
96.4098821927
 20
188.2355830298
  0
LWPOLYLINE
  5
81
330
1F
100
AcDbEntity
  8
0
  6
Continuous
 62
     7
370
    25
100
AcDbPolyline
 90
        3
 70
   128
 43
0.0
 10
95.7417199955
 20
187.3516829578
 10
96.0878349341
 20
187.1523209764
 10
96.409882253
 20
186.9655862478
  0
LWPOLYLINE
  5
82
330
1F
100
AcDbEntity
  8
0
  6
Continuous
 62
     7
370
    25
100
AcDbPolyline
 90
        3
 70
   128
 43
0.0
 10
95.7417199955
 20
186.0816829578
 10
96.0880376142
 20
185.882261512
 10
96.4098823176
 20
185.6955894978
  0
LWPOLYLINE
  5
83
330
1F
100
AcDbEntity
  8
0
  6
Continuous
 62
     7
370
    25
100
AcDbPolyline
 90
        3
 70
   128
 43
0.0
 10
95.7417199955
 20
184.8116829578
 10
96.0882412475
 20
184.6122020385
 10
96.4098823865
 20
184.42559278
  0
LWPOLYLINE
  5
84
330
1F
100
AcDbEntity
  8
0
  6
Continuous
 62
     7
370
    25
100
AcDbPolyline
 90
        3
 70
   128
 43
0.0
 10
95.7417199955
 20
183.5416829578
 10
96.0884458341
 20
183.3421425558
 10
96.4098824597
 20
183.1555960946
  0
LWPOLYLINE
  5
85
330
1F
100
AcDbEntity
  8
0
  6
Continuous
 62
     7
370
    25
100
AcDbPolyline
 90
        3
 70
   128
 43
0.0
 10
95.7417199955
 20
182.2716829578
 10
96.0886513742
 20
182.0720830641
 10
96.409882537
 20
181.8855994417
  0
LWPOLYLINE
  5
86
330
1F
100
AcDbEntity
  8
0
  6
Continuous
 62
     7
370
    25
100
AcDbPolyline
 90
        3
 70
   128
 43
0.0
 10
116.3319691694
 20
201.5666638991
 10
116.6757819681
 20
201.7652667579
 10
117.0197481228
 20
201.9639857945
  0
LWPOLYLINE
  5
87
330
1F
100
AcDbEntity
  8
0
  6
Continuous
 62
     7
370
    25
100
AcDbPolyline
 90
        3
 70
   128
 43
0.0
 10
116.3319691694
 20
200.2966638991
 10
116.6757068915
 20
200.4952085849
 10
117.0197481228
 20
200.6939857945
  0
LWPOLYLINE
  5
88
330
1F
100
AcDbEntity
  8
0
  6
Continuous
 62
     7
370
    25
100
AcDbPolyline
 90
        3
 70
   128
 43
0.0
 10
116.3319691694
 20
199.0266638991
 10
116.6756308794
 20
199.225150402
 10
117.0197481228
 20
199.4239857945
  0
LWPOLYLINE
  5
89
330
1F
100
AcDbEntity
  8
0
  6
Continuous
 62
     7
370
    25
100
AcDbPolyline
 90
        3
 70
   128
 43
0.0
 10
116.3319691694
 20
197.7566638991
 10
116.6755539316
 20
197.9550922091
 10
117.0197481228
 20
198.1539857945
  0
LWPOLYLINE
  5
8A
330
1F
100
AcDbEntity
  8
0
  6
Continuous
 62
     7
370
    25
100
AcDbPolyline
 90
        3
 70
   128
 43
0.0
 10
116.3319691694
 20
196.4866638991
 10
116.6754760479
 20
196.6850340062
 10
117.0197481228
 20
196.8839857945
  0
LWPOLYLINE
  5
8B
330
1F
100
AcDbEntity
  8
0
  6
Continuous
 62
     7
370
    25
100
AcDbPolyline
 90
        3
 70
   128
 43
0.0
 10
116.3319691694
 20
195.2166638991
 10
116.6753972282
 20
195.4149757932
 10
117.0197481228
 20
195.6139857945
  0
LWPOLYLINE
  5
8C
330
1F
100
AcDbEntity
  8
0
  6
Continuous
 62
     7
370
    25
100
AcDbPolyline
 90
        3
 70
   128
 43
0.0
 10
116.3319691694
 20
193.9466638991
 10
116.6753174724
 20
194.1449175703
 10
117.0197481228
 20
194.3439857945
  0
LWPOLYLINE
  5
8D
330
1F
100
AcDbEntity
  8
0
  6
Continuous
 62
     7
370
    25
100
AcDbPolyline
 90
        3
 70
   128
 43
0.0
 10
116.3319691694
 20
192.6766638991
 10
116.6752367804
 20
192.8748593375
 10
117.0197481228
 20
193.0739857945
  0
LWPOLYLINE
  5
8E
330
1F
100
AcDbEntity
  8
0
  6
Continuous
 62
     7
370
    25
100
AcDbPolyline
 90
        3
 70
   128
 43
0.0
 10
116.3319691694
 20
191.4066638991
 10
116.6751551519
 20
191.6048010946
 10
117.0197481228
 20
191.8039857945
  0
LWPOLYLINE
  5
8F
330
1F
100
AcDbEntity
  8
0
  6
Continuous
 62
     7
370
    25
100
AcDbPolyline
 90
        3
 70
   128
 43
0.0
 10
116.3319691694
 20
190.1366638991
 10
116.6750725868
 20
190.3347428418
 10
117.0197481228
 20
190.5339857945
  0
LWPOLYLINE
  5
90
330
1F
100
AcDbEntity
  8
0
  6
Continuous
 62
     7
370
    25
100
AcDbPolyline
 90
        3
 70
   128
 43
0.0
 10
116.3319691694
 20
188.8666638991
 10
116.674989085
 20
189.0646845791
 10
117.0197481228
 20
189.2639857945
  0
LWPOLYLINE
  5
91
330
1F
100
AcDbEntity
  8
0
  6
Continuous
 62
     7
370
    25
100
AcDbPolyline
 90
        3
 70
   128
 43
0.0
 10
116.3319691694
 20
187.5966638991
 10
116.6749046463
 20
187.7946263063
 10
117.0197481228
 20
187.9939857945
  0
LWPOLYLINE
  5
92
330
1F
100
AcDbEntity
  8
0
  6
Continuous
 62
     7
370
    25
100
AcDbPolyline
 90
        3
 70
   128
 43
0.0
 10
116.3319691694
 20
186.3266638991
 10
116.6748192707
 20
186.5245680237
 10
117.0197481228
 20
186.7239857945
  0
LWPOLYLINE
  5
93
330
1F
100
AcDbEntity
  8
0
  6
Continuous
 62
     7
370
    25
100
AcDbPolyline
 90
        3
 70
   128
 43
0.0
 10
116.3319691694
 20
185.0566638991
 10
116.6747329579
 20
185.2545097311
 10
117.0197481228
 20
185.4539857945
  0
LWPOLYLINE
  5
94
330
1F
100
AcDbEntity
  8
0
  6
Continuous
 62
     7
370
    25
100
AcDbPolyline
 90
        3
 70
   128
 43
0.0
 10
116.3319691694
 20
183.7866638991
 10
116.6746457078
 20
183.9844514286
 10
117.0197481228
 20
184.1839857945
  0
LWPOLYLINE
  5
95
330
1F
100
AcDbEntity
  8
0
  6
Continuous
 62
     7
370
    25
100
AcDbPolyline
 90
        3
 70
   128
 43
0.0
 10
116.3319691694
 20
182.5166638991
 10
116.6745575202
 20
182.7143931161
 10
117.0197481228
 20
182.9139857945
  0
LWPOLYLINE
  5
96
330
1F
100
AcDbEntity
  8
0
  6
Continuous
 62
     7
370
    25
100
AcDbPolyline
 90
        3
 70
   128
 43
0.0
 10
116.3319691694
 20
181.2466638991
 10
116.6744683951
 20
181.4443347938
 10
117.0197481228
 20
181.6439857945
  0
LWPOLYLINE
  5
97
330
1F
100
AcDbEntity
  8
0
  6
Continuous
 62
     7
370
    25
100
AcDbPolyline
 90
        3
 70
   128
 43
0.0
 10
116.3319691694
 20
202.8366638991
 10
116.6758561093
 20
203.0353249208
 10
116.843457911
 20
203.1321457804
  0
LWPOLYLINE
  5
98
330
1F
100
AcDbEntity
  8
0
  6
Continuous
 62
     7
370
    25
100
AcDbPolyline
 90
        3
 70
   128
 43
0.0
 10
95.7417199955
 20
202.5916829578
 10
96.0854770807
 20
202.3930338378
 10
96.4098818358
 20
202.2055497142
  0
LWPOLYLINE
  5
99
330
1F
100
AcDbEntity
  8
0
  6
Continuous
 62
     7
370
    25
100
AcDbPolyline
 90
        3
 70
   128
 43
0.0
 10
96.4156900755
 20
87.3418054333
 10
96.0735509572
 20
87.1440830202
 10
96.0722669324
 20
87.143341602
  0
LWPOLYLINE
  5
9A
330
1F
100
AcDbEntity
  8
0
  6
Continuous
 62
     7
370
    25
100
AcDbPolyline
 90
        3
 70
   128
 43
0.0
 10
96.4128721646
 20
201.8936852139
 10
96.0689168481
 20
201.6949677177
 10
95.7251004908
 20
201.4963666447
  0
LWPOLYLINE
  5
9B
330
1F
100
AcDbEntity
  8
0
  6
Continuous
 62
     7
370
    25
100
AcDbPolyline
 90
        3
 70
   128
 43
0.0
 10
96.4128721646
 20
200.6236852139
 10
96.0688459026
 20
200.4249095891
 10
95.7251004908
 20
200.2263666447
  0
LWPOLYLINE
  5
9C
330
1F
100
AcDbEntity
  8
0
  6
Continuous
 62
     7
370
    25
100
AcDbPolyline
 90
        3
 70
   128
 43
0.0
 10
96.4128721646
 20
199.3536852139
 10
96.0687758918
 20
199.1548514705
 10
95.7251004908
 20
198.9563666447
  0
LWPOLYLINE
  5
9D
330
1F
100
AcDbEntity
  8
0
  6
Continuous
 62
     7
370
    25
100
AcDbPolyline
 90
        3
 70
   128
 43
0.0
 10
96.4128721646
 20
198.0836852139
 10
96.0687068157
 20
197.884793362
 10
95.7251004908
 20
197.6863666447
  0
LWPOLYLINE
  5
9E
330
1F
100
AcDbEntity
  8
0
  6
Continuous
 62
     7
370
    25
100
AcDbPolyline
 90
        3
 70
   128
 43
0.0
 10
96.4128721646
 20
196.8136852139
 10
96.068638674
 20
196.6147352635
 10
95.7251004908
 20
196.4163666447
  0
LWPOLYLINE
  5
9F
330
1F
100
AcDbEntity
  8
0
  6
Continuous
 62
     7
370
    25
100
AcDbPolyline
 90
        3
 70
   128
 43
0.0
 10
96.4128721646
 20
195.5436852139
 10
96.0685714667
 20
195.3446771751
 10
95.7251004908
 20
195.1463666447
  0
LWPOLYLINE
  5
A0
330
1F
100
AcDbEntity
  8
0
  6
Continuous
 62
     7
370
    25
100
AcDbPolyline
 90
        3
 70
   128
 43
0.0
 10
96.4128721646
 20
194.2736852139
 10
96.0685051934
 20
194.0746190968
 10
95.7251004908
 20
193.8763666447
  0
LWPOLYLINE
  5
A1
330
1F
100
AcDbEntity
  8
0
  6
Continuous
 62
     7
370
    25
100
AcDbPolyline
 90
        3
 70
   128
 43
0.0
 10
96.4128721646
 20
193.0036852139
 10
96.0684398543
 20
192.8045610285
 10
95.7251004908
 20
192.6063666447
  0
LWPOLYLINE
  5
A2
330
1F
100
AcDbEntity
  8
0
  6
Continuous
 62
     7
370
    25
100
AcDbPolyline
 90
        3
 70
   128
 43
0.0
 10
96.4128721646
 20
191.7336852139
 10
96.0683754489
 20
191.5345029704
 10
95.7251004908
 20
191.3363666447
  0
LWPOLYLINE
  5
A3
330
1F
100
AcDbEntity
  8
0
  6
Continuous
 62
     7
370
    25
100
AcDbPolyline
 90
        3
 70
   128
 43
0.0
 10
96.4128721646
 20
190.4636852139
 10
96.0683119773
 20
190.2644449223
 10
95.7251004908
 20
190.0663666447
  0
LWPOLYLINE
  5
A4
330
1F
100
AcDbEntity
  8
0
  6
Continuous
 62
     7
370
    25
100
AcDbPolyline
 90
        3
 70
   128
 43
0.0
 10
96.4128721646
 20
189.1936852139
 10
96.0682494392
 20
188.9943868843
 10
95.7251004908
 20
188.7963666447
  0
LWPOLYLINE
  5
A5
330
1F
100
AcDbEntity
  8
0
  6
Continuous
 62
     7
370
    25
100
AcDbPolyline
 90
        3
 70
   128
 43
0.0
 10
96.4128721646
 20
187.9236852139
 10
96.0681878346
 20
187.7243288564
 10
95.7251004908
 20
187.5263666447
  0
LWPOLYLINE
  5
A6
330
1F
100
AcDbEntity
  8
0
  6
Continuous
 62
     7
370
    25
100
AcDbPolyline
 90
        3
 70
   128
 43
0.0
 10
96.4128721646
 20
186.6536852139
 10
96.0681271632
 20
186.4542708386
 10
95.7251004908
 20
186.2563666447
  0
LWPOLYLINE
  5
A7
330
1F
100
AcDbEntity
  8
0
  6
Continuous
 62
     7
370
    25
100
AcDbPolyline
 90
        3
 70
   128
 43
0.0
 10
96.4128721646
 20
185.3836852139
 10
96.0680674249
 20
185.1842128309
 10
95.7251004908
 20
184.9863666447
  0
LWPOLYLINE
  5
A8
330
1F
100
AcDbEntity
  8
0
  6
Continuous
 62
     7
370
    25
100
AcDbPolyline
 90
        3
 70
   128
 43
0.0
 10
96.4128721646
 20
184.1136852139
 10
96.0680086196
 20
183.9141548334
 10
95.7251004908
 20
183.7163666447
  0
LWPOLYLINE
  5
A9
330
1F
100
AcDbEntity
  8
0
  6
Continuous
 62
     7
370
    25
100
AcDbPolyline
 90
        3
 70
   128
 43
0.0
 10
96.4128721646
 20
182.8436852139
 10
96.0679507471
 20
182.644096846
 10
95.7251004908
 20
182.4463666447
  0
LWPOLYLINE
  5
AA
330
1F
100
AcDbEntity
  8
0
  6
Continuous
 62
     7
370
    25
100
AcDbPolyline
 90
        3
 70
   128
 43
0.0
 10
96.4128721646
 20
181.5736852139
 10
96.0678938073
 20
181.3740388687
 10
95.7251004908
 20
181.1763666447
  0
LWPOLYLINE
  5
AB
330
1F
100
AcDbEntity
  8
0
  6
Continuous
 62
     7
370
    25
100
AcDbPolyline
 90
        3
 70
   128
 43
0.0
 10
116.9713447093
 20
200.8762275145
 10
116.6289406181
 20
201.0747338323
 10
116.2859590064
 20
201.2733610392
  0
LWPOLYLINE
  5
AC
330
1F
100
AcDbEntity
  8
0
  6
Continuous
 62
     7
370
    25
100
AcDbPolyline
 90
        3
 70
   128
 43
0.0
 10
116.9713447093
 20
199.6062275145
 10
116.6292482568
 20
199.804673415
 10
116.2859590064
 20
200.0033610392
  0
LWPOLYLINE
  5
AD
330
1F
100
AcDbEntity
  8
0
  6
Continuous
 62
     7
370
    25
100
AcDbPolyline
 90
        3
 70
   128
 43
0.0
 10
116.9713447093
 20
198.3362275145
 10
116.6295549313
 20
198.534613006
 10
116.2859590064
 20
198.7333610392
  0
LWPOLYLINE
  5
AE
330
1F
100
AcDbEntity
  8
0
  6
Continuous
 62
     7
370
    25
100
AcDbPolyline
 90
        3
 70
   128
 43
0.0
 10
116.9713447093
 20
197.0662275145
 10
116.6298606417
 20
197.2645526053
 10
116.2859590064
 20
197.4633610392
  0
LWPOLYLINE
  5
AF
330
1F
100
AcDbEntity
  8
0
  6
Continuous
 62
     7
370
    25
100
AcDbPolyline
 90
        3
 70
   128
 43
0.0
 10
116.9713447093
 20
195.7962275145
 10
116.6301653882
 20
195.9944922129
 10
116.2859590064
 20
196.1933610392
  0
LWPOLYLINE
  5
B0
330
1F
100
AcDbEntity
  8
0
  6
Continuous
 62
     7
370
    25
100
AcDbPolyline
 90
        3
 70
   128
 43
0.0
 10
116.9713447093
 20
194.5262275145
 10
116.6304691708
 20
194.7244318289
 10
116.2859590064
 20
194.9233610392
  0
LWPOLYLINE
  5
B1
330
1F
100
AcDbEntity
  8
0
  6
Continuous
 62
     7
370
    25
100
AcDbPolyline
 90
        3
 70
   128
 43
0.0
 10
116.9713447093
 20
193.2562275145
 10
116.6307719897
 20
193.4543714532
 10
116.2859590064
 20
193.6533610392
  0
LWPOLYLINE
  5
B2
330
1F
100
AcDbEntity
  8
0
  6
Continuous
 62
     7
370
    25
100
AcDbPolyline
 90
        3
 70
   128
 43
0.0
 10
116.9713447093
 20
191.9862275145
 10
116.6310738448
 20
192.1843110859
 10
116.2859590064
 20
192.3833610392
  0
LWPOLYLINE
  5
B3
330
1F
100
AcDbEntity
  8
0
  6
Continuous
 62
     7
370
    25
100
AcDbPolyline
 90
        3
 70
   128
 43
0.0
 10
116.9713447093
 20
190.7162275145
 10
116.6313747363
 20
190.9142507269
 10
116.2859590064
 20
191.1133610392
  0
LWPOLYLINE
  5
B4
330
1F
100
AcDbEntity
  8
0
  6
Continuous
 62
     7
370
    25
100
AcDbPolyline
 90
        3
 70
   128
 43
0.0
 10
116.9713447093
 20
189.4462275145
 10
116.6316746643
 20
189.6441903762
 10
116.2859590064
 20
189.8433610392
  0
LWPOLYLINE
  5
B5
330
1F
100
AcDbEntity
  8
0
  6
Continuous
 62
     7
370
    25
100
AcDbPolyline
 90
        3
 70
   128
 43
0.0
 10
116.9713447093
 20
188.1762275145
 10
116.6319736289
 20
188.374130034
 10
116.2859590064
 20
188.5733610392
  0
LWPOLYLINE
  5
B6
330
1F
100
AcDbEntity
  8
0
  6
Continuous
 62
     7
370
    25
100
AcDbPolyline
 90
        3
 70
   128
 43
0.0
 10
116.9713447093
 20
186.9062275145
 10
116.6322716302
 20
187.1040697001
 10
116.2859590064
 20
187.3033610392
  0
LWPOLYLINE
  5
B7
330
1F
100
AcDbEntity
  8
0
  6
Continuous
 62
     7
370
    25
100
AcDbPolyline
 90
        3
 70
   128
 43
0.0
 10
116.9713447093
 20
185.6362275145
 10
116.6325686681
 20
185.8340093746
 10
116.2859590064
 20
186.0333610392
  0
LWPOLYLINE
  5
B8
330
1F
100
AcDbEntity
  8
0
  6
Continuous
 62
     7
370
    25
100
AcDbPolyline
 90
        3
 70
   128
 43
0.0
 10
116.9713447093
 20
184.3662275145
 10
116.632864743
 20
184.5639490575
 10
116.2859590064
 20
184.7633610392
  0
LWPOLYLINE
  5
B9
330
1F
100
AcDbEntity
  8
0
  6
Continuous
 62
     7
370
    25
100
AcDbPolyline
 90
        3
 70
   128
 43
0.0
 10
116.9713447093
 20
183.0962275145
 10
116.6331598547
 20
183.2938887487
 10
116.2859590064
 20
183.4933610392
  0
LWPOLYLINE
  5
BA
330
1F
100
AcDbEntity
  8
0
  6
Continuous
 62
     7
370
    25
100
AcDbPolyline
 90
        3
 70
   128
 43
0.0
 10
116.9713447093
 20
181.8262275145
 10
116.6334540035
 20
182.0238284484
 10
116.2859590064
 20
182.2233610392
  0
LWPOLYLINE
  5
BB
330
1F
100
AcDbEntity
  8
0
  6
Continuous
 62
     7
370
    25
100
AcDbPolyline
 90
        3
 70
   128
 43
0.0
 10
116.9713447093
 20
180.5562275145
 10
116.6337471894
 20
180.7537681565
 10
116.2859590064
 20
180.9533610392
  0
LWPOLYLINE
  5
BC
330
1F
100
AcDbEntity
  8
0
  6
Continuous
 62
     7
370
    25
100
AcDbPolyline
 90
        3
 70
   128
 43
0.0
 10
116.9713447093
 20
202.1462275145
 10
116.6286320152
 20
202.3447942579
 10
116.2859590064
 20
202.5433610392
  0
LWPOLYLINE
  5
BD
330
1F
100
AcDbEntity
  8
0
  6
Continuous
 62
     7
370
    25
100
AcDbPolyline
 90
        3
 70
   128
 43
0.0
 10
96.4128721646
 20
203.1636852139
 10
96.0689887285
 20
202.9650258563
 10
95.7251004908
 20
202.7663666447
  0
LWPOLYLINE
  5
BE
330
1F
100
AcDbEntity
  8
0
  6
Continuous
 62
     7
370
    25
100
AcDbPolyline
 90
        3
 70
   128
 43
0.0
 10
116.5307505452
 20
87.143341602
 10
116.6215823464
 20
87.1955545096
 10
116.9590762311
 20
87.3932410427
  0
LWPOLYLINE
  5
BF
330
1F
100
AcDbEntity
  8
0
  6
Continuous
 62
     7
370
    25
100
AcDbPolyline
 90
        3
 70
   128
 43
0.0
 10
95.7275883591
 20
88.0436155392
 10
96.0700140541
 20
87.8458966801
 10
96.4098866613
 20
87.6494820967
  0
LINE
  5
C0
330
1F
100
AcDbEntity
  8
0
  6
Continuous
 62
     7
370
    25
100
AcDbLine
 10
117.0224741662
 20
201.9684019819
 30
0.0
 11
117.0224741662
 21
202.1269480504
 31
0.0
  0
LINE
  5
C1
330
1F
100
AcDbEntity
  8
0
  6
Continuous
 62
     7
370
    25
100
AcDbLine
 10
117.0224741662
 20
200.6984019819
 30
0.0
 11
117.0224741662
 21
200.8569480504
 31
0.0
  0
LINE
  5
C2
330
1F
100
AcDbEntity
  8
0
  6
Continuous
 62
     7
370
    25
100
AcDbLine
 10
117.0224741662
 20
199.4284019819
 30
0.0
 11
117.0224741662
 21
199.5869480504
 31
0.0
  0
LINE
  5
C3
330
1F
100
AcDbEntity
  8
0
  6
Continuous
 62
     7
370
    25
100
AcDbLine
 10
117.0224741662
 20
198.1584019819
 30
0.0
 11
117.0224741662
 21
198.3169480504
 31
0.0
  0
LINE
  5
C4
330
1F
100
AcDbEntity
  8
0
  6
Continuous
 62
     7
370
    25
100
AcDbLine
 10
117.0224741662
 20
196.8884019819
 30
0.0
 11
117.0224741662
 21
197.0469480504
 31
0.0
  0
LINE
  5
C5
330
1F
100
AcDbEntity
  8
0
  6
Continuous
 62
     7
370
    25
100
AcDbLine
 10
117.0224741662
 20
195.6184019819
 30
0.0
 11
117.0224741662
 21
195.7769480504
 31
0.0
  0
LINE
  5
C6
330
1F
100
AcDbEntity
  8
0
  6
Continuous
 62
     7
370
    25
100
AcDbLine
 10
117.0224741662
 20
194.3484019819
 30
0.0
 11
117.0224741662
 21
194.5069480504
 31
0.0
  0
LINE
  5
C7
330
1F
100
AcDbEntity
  8
0
  6
Continuous
 62
     7
370
    25
100
AcDbLine
 10
117.0224741662
 20
193.0784019819
 30
0.0
 11
117.0224741662
 21
193.2369480504
 31
0.0
  0
LINE
  5
C8
330
1F
100
AcDbEntity
  8
0
  6
Continuous
 62
     7
370
    25
100
AcDbLine
 10
117.0224741662
 20
191.8084019819
 30
0.0
 11
117.0224741662
 21
191.9669480504
 31
0.0
  0
LINE
  5
C9
330
1F
100
AcDbEntity
  8
0
  6
Continuous
 62
     7
370
    25
100
AcDbLine
 10
117.0224741662
 20
190.5384019819
 30
0.0
 11
117.0224741662
 21
190.6969480504
 31
0.0
  0
LINE
  5
CA
330
1F
100
AcDbEntity
  8
0
  6
Continuous
 62
     7
370
    25
100
AcDbLine
 10
117.0224741662
 20
189.2684019819
 30
0.0
 11
117.0224741662
 21
189.4269480504
 31
0.0
  0
LINE
  5
CB
330
1F
100
AcDbEntity
  8
0
  6
Continuous
 62
     7
370
    25
100
AcDbLine
 10
117.0224741662
 20
187.9984019819
 30
0.0
 11
117.0224741662
 21
188.1569480504
 31
0.0
  0
LINE
  5
CC
330
1F
100
AcDbEntity
  8
0
  6
Continuous
 62
     7
370
    25
100
AcDbLine
 10
117.0224741662
 20
186.7284019819
 30
0.0
 11
117.0224741662
 21
186.8869480504
 31
0.0
  0
LINE
  5
CD
330
1F
100
AcDbEntity
  8
0
  6
Continuous
 62
     7
370
    25
100
AcDbLine
 10
117.0224741662
 20
185.4584019819
 30
0.0
 11
117.0224741662
 21
185.6169480504
 31
0.0
  0
LINE
  5
CE
330
1F
100
AcDbEntity
  8
0
  6
Continuous
 62
     7
370
    25
100
AcDbLine
 10
117.0224741662
 20
184.1884019819
 30
0.0
 11
117.0224741662
 21
184.3469480504
 31
0.0
  0
LINE
  5
CF
330
1F
100
AcDbEntity
  8
0
  6
Continuous
 62
     7
370
    25
100
AcDbLine
 10
117.0224741662
 20
182.9184019819
 30
0.0
 11
117.0224741662
 21
183.0769480504
 31
0.0
  0
LINE
  5
D0
330
1F
100
AcDbEntity
  8
0
  6
Continuous
 62
     7
370
    25
100
AcDbLine
 10
117.0224741662
 20
181.6484019819
 30
0.0
 11
117.0224741662
 21
181.8069480504
 31
0.0
  0
LINE
  5
D1
330
1F
100
AcDbEntity
  8
0
  6
Continuous
 62
     7
370
    25
100
AcDbLine
 10
117.0224741662
 20
87.4145915985
 30
0.0
 11
117.0224741662
 21
180.5369480504
 31
0.0
  0
LINE
  5
D2
330
1F
100
AcDbEntity
  8
0
  6
Continuous
 62
     7
370
    25
100
AcDbLine
 10
95.7224741662
 20
181.1721277876
 30
0.0
 11
95.7224741662
 21
88.0494672712
 31
0.0
  0
LINE
  5
D3
330
1F
100
AcDbEntity
  8
0
  6
Continuous
 62
     7
370
    25
100
AcDbLine
 10
95.7224741662
 20
182.4421277876
 30
0.0
 11
95.7224741662
 21
182.2832333886
 31
0.0
  0
LINE
  5
D4
330
1F
100
AcDbEntity
  8
0
  6
Continuous
 62
     7
370
    25
100
AcDbLine
 10
95.7224741662
 20
183.7121277876
 30
0.0
 11
95.7224741662
 21
183.5532333886
 31
0.0
  0
LINE
  5
D5
330
1F
100
AcDbEntity
  8
0
  6
Continuous
 62
     7
370
    25
100
AcDbLine
 10
95.7224741662
 20
184.9821277876
 30
0.0
 11
95.7224741662
 21
184.8232333886
 31
0.0
  0
LINE
  5
D6
330
1F
100
AcDbEntity
  8
0
  6
Continuous
 62
     7
370
    25
100
AcDbLine
 10
95.7224741662
 20
186.2521277876
 30
0.0
 11
95.7224741662
 21
186.0932333886
 31
0.0
  0
LINE
  5
D7
330
1F
100
AcDbEntity
  8
0
  6
Continuous
 62
     7
370
    25
100
AcDbLine
 10
95.7224741662
 20
187.5221277876
 30
0.0
 11
95.7224741662
 21
187.3632333886
 31
0.0
  0
LINE
  5
D8
330
1F
100
AcDbEntity
  8
0
  6
Continuous
 62
     7
370
    25
100
AcDbLine
 10
95.7224741662
 20
188.7921277876
 30
0.0
 11
95.7224741662
 21
188.6332333886
 31
0.0
  0
LINE
  5
D9
330
1F
100
AcDbEntity
  8
0
  6
Continuous
 62
     7
370
    25
100
AcDbLine
 10
95.7224741662
 20
190.0621277876
 30
0.0
 11
95.7224741662
 21
189.9032333886
 31
0.0
  0
LINE
  5
DA
330
1F
100
AcDbEntity
  8
0
  6
Continuous
 62
     7
370
    25
100
AcDbLine
 10
95.7224741662
 20
191.3321277876
 30
0.0
 11
95.7224741662
 21
191.1732333886
 31
0.0
  0
LINE
  5
DB
330
1F
100
AcDbEntity
  8
0
  6
Continuous
 62
     7
370
    25
100
AcDbLine
 10
95.7224741662
 20
192.6021277876
 30
0.0
 11
95.7224741662
 21
192.4432333886
 31
0.0
  0
LINE
  5
DC
330
1F
100
AcDbEntity
  8
0
  6
Continuous
 62
     7
370
    25
100
AcDbLine
 10
95.7224741662
 20
193.8721277876
 30
0.0
 11
95.7224741662
 21
193.7132333886
 31
0.0
  0
LINE
  5
DD
330
1F
100
AcDbEntity
  8
0
  6
Continuous
 62
     7
370
    25
100
AcDbLine
 10
95.7224741662
 20
195.1421277876
 30
0.0
 11
95.7224741662
 21
194.9832333886
 31
0.0
  0
LINE
  5
DE
330
1F
100
AcDbEntity
  8
0
  6
Continuous
 62
     7
370
    25
100
AcDbLine
 10
95.7224741662
 20
196.4121277876
 30
0.0
 11
95.7224741662
 21
196.2532333886
 31
0.0
  0
LINE
  5
DF
330
1F
100
AcDbEntity
  8
0
  6
Continuous
 62
     7
370
    25
100
AcDbLine
 10
95.7224741662
 20
197.6821277876
 30
0.0
 11
95.7224741662
 21
197.5232333886
 31
0.0
  0
LINE
  5
E0
330
1F
100
AcDbEntity
  8
0
  6
Continuous
 62
     7
370
    25
100
AcDbLine
 10
95.7224741662
 20
198.9521277876
 30
0.0
 11
95.7224741662
 21
198.7932333886
 31
0.0
  0
LINE
  5
E1
330
1F
100
AcDbEntity
  8
0
  6
Continuous
 62
     7
370
    25
100
AcDbLine
 10
95.7224741662
 20
200.2221277876
 30
0.0
 11
95.7224741662
 21
200.0632333886
 31
0.0
  0
LINE
  5
E2
330
1F
100
AcDbEntity
  8
0
  6
Continuous
 62
     7
370
    25
100
AcDbLine
 10
95.7224741662
 20
201.4921277876
 30
0.0
 11
95.7224741662
 21
201.3332333886
 31
0.0
  0
LINE
  5
E3
330
1F
100
AcDbEntity
  8
0
  6
Continuous
 62
     7
370
    25
100
AcDbLine
 10
95.7224741662
 20
202.7621277876
 30
0.0
 11
95.7224741662
 21
202.6032333886
 31
0.0
  0
LWPOLYLINE
  5
E4
330
1F
100
AcDbEntity
  8
0
  6
Continuous
 62
     7
370
    25
100
AcDbPolyline
 90
        3
 70
   128
 43
0.0
 10
96.4098852252
 20
87.6525583084
 10
96.4099589067
 20
87.4947210142
 10
96.4098867912
 20
87.3384517116
  0
LWPOLYLINE
  5
E5
330
1F
100
AcDbEntity
  8
0
  6
Continuous
 62
     7
370
    25
100
AcDbPolyline
 90
        3
 70
   128
 43
0.0
 10
96.4098818326
 20
202.2064604243
 10
96.4098823749
 20
202.0476530746
 10
96.4098818429
 20
201.8919575789
  0
LWPOLYLINE
  5
E6
330
1F
100
AcDbEntity
  8
0
  6
Continuous
 62
     7
370
    25
100
AcDbPolyline
 90
        3
 70
   128
 43
0.0
 10
96.4098818326
 20
200.9364604243
 10
96.4098838094
 20
200.7775957143
 10
96.40988187
 20
200.6219574455
  0
LWPOLYLINE
  5
E7
330
1F
100
AcDbEntity
  8
0
  6
Continuous
 62
     7
370
    25
100
AcDbPolyline
 90
        3
 70
   128
 43
0.0
 10
96.4098818326
 20
199.6664604243
 10
96.4098861363
 20
199.5075383436
 10
96.409881914
 20
199.3519573174
  0
LWPOLYLINE
  5
E8
330
1F
100
AcDbEntity
  8
0
  6
Continuous
 62
     7
370
    25
100
AcDbPolyline
 90
        3
 70
   128
 43
0.0
 10
96.4098818326
 20
198.3964604243
 10
96.4098893559
 20
198.2374809623
 10
96.4098819749
 20
198.0819571945
  0
LWPOLYLINE
  5
E9
330
1F
100
AcDbEntity
  8
0
  6
Continuous
 62
     7
370
    25
100
AcDbPolyline
 90
        3
 70
   128
 43
0.0
 10
96.4098818326
 20
197.1264604243
 10
96.4098934682
 20
196.9674235706
 10
96.4098820527
 20
196.8119570769
  0
LWPOLYLINE
  5
EA
330
1F
100
AcDbEntity
  8
0
  6
Continuous
 62
     7
370
    25
100
AcDbPolyline
 90
        3
 70
   128
 43
0.0
 10
96.4098818326
 20
195.8564604243
 10
96.4098984735
 20
195.6973661683
 10
96.4098821474
 20
195.5419569645
  0
LWPOLYLINE
  5
EB
330
1F
100
AcDbEntity
  8
0
  6
Continuous
 62
     7
370
    25
100
AcDbPolyline
 90
        3
 70
   128
 43
0.0
 10
96.4098818326
 20
194.5864604243
 10
96.4099043718
 20
194.4273087556
 10
96.4098822592
 20
194.2719568574
  0
LWPOLYLINE
  5
EC
330
1F
100
AcDbEntity
  8
0
  6
Continuous
 62
     7
370
    25
100
AcDbPolyline
 90
        3
 70
   128
 43
0.0
 10
96.4098818326
 20
193.3164604243
 10
96.4099111634
 20
193.1572513324
 10
96.4098823879
 20
193.0019567556
  0
LWPOLYLINE
  5
ED
330
1F
100
AcDbEntity
  8
0
  6
Continuous
 62
     7
370
    25
100
AcDbPolyline
 90
        3
 70
   128
 43
0.0
 10
96.4098818326
 20
192.0464604243
 10
96.4099188484
 20
191.8871938988
 10
96.4098825336
 20
191.7319566592
  0
LWPOLYLINE
  5
EE
330
1F
100
AcDbEntity
  8
0
  6
Continuous
 62
     7
370
    25
100
AcDbPolyline
 90
        3
 70
   128
 43
0.0
 10
96.4098818326
 20
190.7764604243
 10
96.4099274269
 20
190.6171364546
 10
96.4098826963
 20
190.461956568
  0
LWPOLYLINE
  5
EF
330
1F
100
AcDbEntity
  8
0
  6
Continuous
 62
     7
370
    25
100
AcDbPolyline
 90
        3
 70
   128
 43
0.0
 10
96.4098818326
 20
189.5064604243
 10
96.4099368992
 20
189.347079
 10
96.4098828761
 20
189.1919564822
  0
LWPOLYLINE
  5
F0
330
1F
100
AcDbEntity
  8
0
  6
Continuous
 62
     7
370
    25
100
AcDbPolyline
 90
        3
 70
   128
 43
0.0
 10
96.4098818326
 20
188.2364604243
 10
96.4099472653
 20
188.077021535
 10
96.4098830729
 20
187.9219564018
  0
LWPOLYLINE
  5
F1
330
1F
100
AcDbEntity
  8
0
  6
Continuous
 62
     7
370
    25
100
AcDbPolyline
 90
        3
 70
   128
 43
0.0
 10
96.4098818326
 20
186.9664604243
 10
96.4099585254
 20
186.8069640595
 10
96.4098832868
 20
186.6519563267
  0
LWPOLYLINE
  5
F2
330
1F
100
AcDbEntity
  8
0
  6
Continuous
 62
     7
370
    25
100
AcDbPolyline
 90
        3
 70
   128
 43
0.0
 10
96.4098818326
 20
185.6964604243
 10
96.4099706797
 20
185.5369065736
 10
96.4098835178
 20
185.3819562571
  0
LWPOLYLINE
  5
F3
330
1F
100
AcDbEntity
  8
0
  6
Continuous
 62
     7
370
    25
100
AcDbPolyline
 90
        3
 70
   128
 43
0.0
 10
96.4098818326
 20
184.4264604243
 10
96.4099837284
 20
184.2668490772
 10
96.409883766
 20
184.1119561929
  0
LWPOLYLINE
  5
F4
330
1F
100
AcDbEntity
  8
0
  6
Continuous
 62
     7
370
    25
100
AcDbPolyline
 90
        3
 70
   128
 43
0.0
 10
96.4098818326
 20
183.1564604243
 10
96.4099976715
 20
182.9967915704
 10
96.4098840313
 20
182.8419561341
  0
LWPOLYLINE
  5
F5
330
1F
100
AcDbEntity
  8
0
  6
Continuous
 62
     7
370
    25
100
AcDbPolyline
 90
        3
 70
   128
 43
0.0
 10
96.4098818326
 20
181.8864604243
 10
96.4100125093
 20
181.7267340532
 10
96.4098843138
 20
181.5719560808
  0
LWPOLYLINE
  5
F6
330
1F
100
AcDbEntity
  8
0
  6
Continuous
 62
     7
370
    25
100
AcDbPolyline
 90
        3
 70
   128
 43
0.0
 10
116.3350665003
 20
201.2539607088
 10
116.3350659625
 20
201.4126533592
 10
116.3350664901
 20
201.568453061
  0
LWPOLYLINE
  5
F7
330
1F
100
AcDbEntity
  8
0
  6
Continuous
 62
     7
370
    25
100
AcDbPolyline
 90
        3
 70
   128
 43
0.0
 10
116.3350665003
 20
199.9839607088
 10
116.3350645324
 20
200.142595999
 10
116.335066463
 20
200.298452912
  0
LWPOLYLINE
  5
F8
330
1F
100
AcDbEntity
  8
0
  6
Continuous
 62
     7
370
    25
100
AcDbPolyline
 90
        3
 70
   128
 43
0.0
 10
116.3350665003
 20
198.7139607088
 10
116.3350622098
 20
198.8725386283
 10
116.335066419
 20
199.0284527579
  0
LWPOLYLINE
  5
F9
330
1F
100
AcDbEntity
  8
0
  6
Continuous
 62
     7
370
    25
100
AcDbPolyline
 90
        3
 70
   128
 43
0.0
 10
116.3350665003
 20
197.4439607088
 10
116.3350589947
 20
197.6024812471
 10
116.3350663582
 20
197.7584525988
  0
LWPOLYLINE
  5
FA
330
1F
100
AcDbEntity
  8
0
  6
Continuous
 62
     7
370
    25
100
AcDbPolyline
 90
        3
 70
   128
 43
0.0
 10
116.3350665003
 20
196.1739607088
 10
116.3350548868
 20
196.3324238554
 10
116.3350662806
 20
196.4884524347
  0
LWPOLYLINE
  5
FB
330
1F
100
AcDbEntity
  8
0
  6
Continuous
 62
     7
370
    25
100
AcDbPolyline
 90
        3
 70
   128
 43
0.0
 10
116.3350665003
 20
194.9039607088
 10
116.335049886
 20
195.0623664532
 10
116.3350661861
 20
195.2184522657
  0
LWPOLYLINE
  5
FC
330
1F
100
AcDbEntity
  8
0
  6
Continuous
 62
     7
370
    25
100
AcDbPolyline
 90
        3
 70
   128
 43
0.0
 10
116.3350665003
 20
193.6339607088
 10
116.3350439921
 20
193.7923090405
 10
116.3350660748
 20
193.9484520916
  0
LWPOLYLINE
  5
FD
330
1F
100
AcDbEntity
  8
0
  6
Continuous
 62
     7
370
    25
100
AcDbPolyline
 90
        3
 70
   128
 43
0.0
 10
116.3350665003
 20
192.3639607088
 10
116.3350372049
 20
192.5222516174
 10
116.3350659466
 20
192.6784519126
  0
LWPOLYLINE
  5
FE
330
1F
100
AcDbEntity
  8
0
  6
Continuous
 62
     7
370
    25
100
AcDbPolyline
 90
        3
 70
   128
 43
0.0
 10
116.3350665003
 20
191.0939607088
 10
116.3350295244
 20
191.2521941837
 10
116.3350658017
 20
191.4084517287
  0
LWPOLYLINE
  5
FF
330
1F
100
AcDbEntity
  8
0
  6
Continuous
 62
     7
370
    25
100
AcDbPolyline
 90
        3
 70
   128
 43
0.0
 10
116.3350665003
 20
189.8239607088
 10
116.3350209503
 20
189.9821367397
 10
116.3350656399
 20
190.1384515398
  0
LWPOLYLINE
  5
100
330
1F
100
AcDbEntity
  8
0
  6
Continuous
 62
     7
370
    25
100
AcDbPolyline
 90
        3
 70
   128
 43
0.0
 10
116.3350665003
 20
188.5539607088
 10
116.3350114825
 20
188.7120792851
 10
116.3350654614
 20
188.868451346
  0
LWPOLYLINE
  5
101
330
1F
100
AcDbEntity
  8
0
  6
Continuous
 62
     7
370
    25
100
AcDbPolyline
 90
        3
 70
   128
 43
0.0
 10
116.3350665003
 20
187.2839607088
 10
116.3350011208
 20
187.4420218201
 10
116.3350652662
 20
187.5984511472
  0
LWPOLYLINE
  5
102
330
1F
100
AcDbEntity
  8
0
  6
Continuous
 62
     7
370
    25
100
AcDbPolyline
 90
        3
 70
   128
 43
0.0
 10
116.3350665003
 20
186.0139607088
 10
116.3349898651
 20
186.1719643447
 10
116.3350650541
 20
186.3284509436
  0
LWPOLYLINE
  5
103
330
1F
100
AcDbEntity
  8
0
  6
Continuous
 62
     7
370
    25
100
AcDbPolyline
 90
        3
 70
   128
 43
0.0
 10
116.3350665003
 20
184.7439607088
 10
116.3349777152
 20
184.9019068588
 10
116.3350648253
 20
185.058450735
  0
LWPOLYLINE
  5
104
330
1F
100
AcDbEntity
  8
0
  6
Continuous
 62
     7
370
    25
100
AcDbPolyline
 90
        3
 70
   128
 43
0.0
 10
116.3350665003
 20
183.4739607088
 10
116.334964671
 20
183.6318493625
 10
116.3350645798
 20
183.7884505216
  0
LWPOLYLINE
  5
105
330
1F
100
AcDbEntity
  8
0
  6
Continuous
 62
     7
370
    25
100
AcDbPolyline
 90
        3
 70
   128
 43
0.0
 10
116.3350665003
 20
182.2039607088
 10
116.3349507323
 20
182.3617918557
 10
116.3350643176
 20
182.5184503032
  0
LWPOLYLINE
  5
106
330
1F
100
AcDbEntity
  8
0
  6
Continuous
 62
     7
370
    25
100
AcDbPolyline
 90
        3
 70
   128
 43
0.0
 10
116.3350665003
 20
180.9339607088
 10
116.3349358989
 20
181.0917343386
 10
116.3350640386
 20
181.24845008
  0
LINE
  5
107
330
1F
100
AcDbEntity
  8
0
  6
Continuous
 62
     7
370
    25
100
AcDbLine
 10
116.3350665003
 20
202.5239607088
 30
0.0
 11
116.3350665003
 21
202.838453205
 31
0.0
  0
LINE
  5
108
330
1F
100
AcDbEntity
  8
0
  6
Continuous
 62
     7
370
    25
100
AcDbLine
 10
90.6552072292
 20
64.143341602
 30
0.0
 11
90.335066505
 21
63.588841602
 31
0.0
  0
LINE
  5
109
330
1F
100
AcDbEntity
  8
0
  6
Continuous
 62
     7
370
    25
100
AcDbLine
 10
90.335066505
 20
58.697841602
 30
0.0
 11
90.6552072292
 21
58.143341602
 31
0.0
  0
LINE
  5
10A
330
1F
100
AcDbEntity
  8
0
  6
Continuous
 62
     7
370
    25
100
AcDbLine
 10
90.6552072292
 20
58.143341602
 30
0.0
 11
91.3724741662
 21
58.143341602
 31
0.0
  0
LINE
  5
10B
330
1F
100
AcDbEntity
  8
0
  6
Continuous
 62
     7
370
    25
100
AcDbLine
 10
91.3724741662
 20
64.143341602
 30
0.0
 11
90.6552072292
 21
64.143341602
 31
0.0
  0
LINE
  5
10C
330
1F
100
AcDbEntity
  8
0
  6
Continuous
 62
     7
370
    25
100
AcDbLine
 10
121.3724741662
 20
86.143341602
 30
0.0
 11
120.3724741662
 21
87.143341602
 31
0.0
  0
LINE
  5
10D
330
1F
100
AcDbEntity
  8
0
  6
Continuous
 62
     7
370
    25
100
AcDbLine
 10
92.3724741662
 20
87.143341602
 30
0.0
 11
91.3724741662
 21
86.143341602
 31
0.0
  0
LINE
  5
10E
330
1F
100
AcDbEntity
  8
0
  6
Continuous
 62
     7
370
    25
100
AcDbLine
 10
91.3724741662
 20
58.143341602
 30
0.0
 11
91.3724741662
 21
54.143341602
 31
0.0
  0
LINE
  5
10F
330
1F
100
AcDbEntity
  8
0
  6
Continuous
 62
     7
370
    25
100
AcDbLine
 10
91.3724741662
 20
86.143341602
 30
0.0
 11
91.3724741662
 21
64.143341602
 31
0.0
  0
LINE
  5
110
330
1F
100
AcDbEntity
  8
0
  6
Continuous
 62
     7
370
    25
100
AcDbLine
 10
121.3724741662
 20
54.143341602
 30
0.0
 11
121.3724741662
 21
86.143341602
 31
0.0
  0
LINE
  5
111
330
1F
100
AcDbEntity
  8
0
  6
Continuous
 62
     7
370
    25
100
AcDbLine
 10
91.3724741662
 20
54.143341602
 30
0.0
 11
92.3724741662
 21
53.143341602
 31
0.0
  0
LINE
  5
112
330
1F
100
AcDbEntity
  8
0
  6
Continuous
 62
     7
370
    25
100
AcDbLine
 10
120.3724741662
 20
53.143341602
 30
0.0
 11
121.3724741662
 21
54.143341602
 31
0.0
  0
LWPOLYLINE
  5
113
330
1F
100
AcDbEntity
  8
0
  6
Continuous
 62
     7
370
    25
100
AcDbPolyline
 90
       15
 70
   128
 43
0.0
 10
116.2828774881
 20
202.8364410253
 10
116.1352745163
 20
202.8016901403
 10
115.3951094006
 20
202.7527228875
 10
114.1571865858
 20
202.7045315557
 10
112.5254368688
 20
202.6592650236
 10
110.5212726217
 20
202.6109778851
 10
108.2767332404
 20
202.5620580628
 10
105.9772011948
 20
202.5163011187
 10
103.6768491484
 20
202.4691561013
 10
101.4951750629
 20
202.4199903955
 10
99.6116359973
 20
202.3728483497
 10
98.1102414987
 20
202.3270891477
 10
97.0334963219
 20
202.2781682582
 10
96.4809630977
 20
202.2298831187
 10
96.4762933643
 20
202.2064573356
  0
LWPOLYLINE
  5
114
330
1F
100
AcDbEntity
  8
0
  6
Continuous
 62
     7
370
    25
100
AcDbPolyline
 90
       15
 70
   128
 43
0.0
 10
116.2828669323
 20
201.5664385401
 10
116.1352745163
 20
201.5316901403
 10
115.3951094006
 20
201.4827228875
 10
114.1571865858
 20
201.4345315557
 10
112.5254368688
 20
201.3892650236
 10
110.5212726217
 20
201.3409778851
 10
108.2767332404
 20
201.2920580628
 10
105.9772011948
 20
201.2463011187
 10
103.6768491484
 20
201.1991561013
 10
101.4951750629
 20
201.1499903955
 10
99.6116359973
 20
201.1028483497
 10
98.1102414987
 20
201.0570891477
 10
97.0334963219
 20
201.0081682582
 10
96.4809630977
 20
200.9598831187
 10
96.4762918247
 20
200.9364496125
  0
LWPOLYLINE
  5
115
330
1F
100
AcDbEntity
  8
0
  6
Continuous
 62
     7
370
    25
100
AcDbPolyline
 90
       15
 70
   128
 43
0.0
 10
116.2828563863
 20
200.2964360572
 10
116.1352745163
 20
200.2616901403
 10
115.3951094006
 20
200.2127228875
 10
114.1571865858
 20
200.1645315557
 10
112.5254368688
 20
200.1192650236
 10
110.5212726217
 20
200.0709778851
 10
108.2767332404
 20
200.0220580628
 10
105.9772011948
 20
199.9763011187
 10
103.6768491484
 20
199.9291561013
 10
101.4951750629
 20
199.8799903955
 10
99.6116359973
 20
199.8328483497
 10
98.1102414987
 20
199.7870891477
 10
97.0334963219
 20
199.7381682582
 10
96.4809630977
 20
199.6898831187
 10
96.4762965152
 20
199.6664731421
  0
LWPOLYLINE
  5
116
330
1F
100
AcDbEntity
  8
0
  6
Continuous
 62
     7
370
    25
100
AcDbPolyline
 90
       15
 70
   128
 43
0.0
 10
116.28284585
 20
199.0264335766
 10
116.1352745163
 20
198.9916901403
 10
115.3951094006
 20
198.9427228875
 10
114.1571865858
 20
198.8945315557
 10
112.5254368688
 20
198.8492650236
 10
110.5212726217
 20
198.8009778851
 10
108.2767332404
 20
198.7520580628
 10
105.9772011948
 20
198.7063011187
 10
103.6768491484
 20
198.6591561013
 10
101.4951750629
 20
198.6099903955
 10
99.6116359973
 20
198.5628483497
 10
98.1102414987
 20
198.5170891477
 10
97.0334963219
 20
198.4681682582
 10
96.4809630977
 20
198.4198831187
 10
96.4762965126
 20
198.396473129
  0
LWPOLYLINE
  5
117
330
1F
100
AcDbEntity
  8
0
  6
Continuous
 62
     7
370
    25
100
AcDbPolyline
 90
       15
 70
   128
 43
0.0
 10
116.2828353234
 20
197.7564310983
 10
116.1352745163
 20
197.7216901403
 10
115.3951094006
 20
197.6727228875
 10
114.1571865858
 20
197.6245315557
 10
112.5254368688
 20
197.5792650236
 10
110.5212726217
 20
197.5309778851
 10
108.2767332404
 20
197.4820580628
 10
105.9772011948
 20
197.4363011187
 10
103.6768491484
 20
197.3891561013
 10
101.4951750629
 20
197.3399903955
 10
99.6116359973
 20
197.2928483497
 10
98.1102414987
 20
197.2470891477
 10
97.0334963219
 20
197.1981682582
 10
96.4809630977
 20
197.1498831187
 10
96.4762965089
 20
197.1264731105
  0
LWPOLYLINE
  5
118
330
1F
100
AcDbEntity
  8
0
  6
Continuous
 62
     7
370
    25
100
AcDbPolyline
 90
       15
 70
   128
 43
0.0
 10
116.2828248063
 20
196.4864286222
 10
116.1352745163
 20
196.4516901403
 10
115.3951094006
 20
196.4027228875
 10
114.1571865858
 20
196.3545315557
 10
112.5254368688
 20
196.3092650236
 10
110.5212726217
 20
196.2609778851
 10
108.2767332404
 20
196.2120580628
 10
105.9772011948
 20
196.1663011187
 10
103.6768491484
 20
196.1191561013
 10
101.4951750629
 20
196.0699903955
 10
99.6116359973
 20
196.0228483497
 10
98.1102414987
 20
195.9770891477
 10
97.0334963219
 20
195.9281682582
 10
96.4809630977
 20
195.8798831187
 10
96.476296504
 20
195.8564730861
  0
LWPOLYLINE
  5
119
330
1F
100
AcDbEntity
  8
0
  6
Continuous
 62
     7
370
    25
100
AcDbPolyline
 90
       15
 70
   128
 43
0.0
 10
116.2828142986
 20
195.2164261483
 10
116.1352745163
 20
195.1816901403
 10
115.3951094006
 20
195.1327228875
 10
114.1571865858
 20
195.0845315557
 10
112.5254368688
 20
195.0392650236
 10
110.5212726217
 20
194.9909778851
 10
108.2767332404
 20
194.9420580628
 10
105.9772011948
 20
194.8963011187
 10
103.6768491484
 20
194.8491561013
 10
101.4951750629
 20
194.7999903955
 10
99.6116359973
 20
194.7528483497
 10
98.1102414987
 20
194.7070891477
 10
97.0334963219
 20
194.6581682582
 10
96.4809630977
 20
194.6098831187
 10
96.4762964979
 20
194.5864730554
  0
LWPOLYLINE
  5
11A
330
1F
100
AcDbEntity
  8
0
  6
Continuous
 62
     7
370
    25
100
AcDbPolyline
 90
       15
 70
   128
 43
0.0
 10
116.2828038003
 20
193.9464236766
 10
116.1352745163
 20
193.9116901403
 10
115.3951094006
 20
193.8627228875
 10
114.1571865858
 20
193.8145315557
 10
112.5254368688
 20
193.7692650236
 10
110.5212726217
 20
193.7209778851
 10
108.2767332404
 20
193.6720580628
 10
105.9772011948
 20
193.6263011187
 10
103.6768491484
 20
193.5791561013
 10
101.4951750629
 20
193.5299903955
 10
99.6116359973
 20
193.4828483497
 10
98.1102414987
 20
193.4370891477
 10
97.0334963219
 20
193.3881682582
 10
96.4809630977
 20
193.3398831187
 10
96.4762964904
 20
193.316473018
  0
LWPOLYLINE
  5
11B
330
1F
100
AcDbEntity
  8
0
  6
Continuous
 62
     7
370
    25
100
AcDbPolyline
 90
       15
 70
   128
 43
0.0
 10
116.2827933112
 20
192.6764212071
 10
116.1352745163
 20
192.6416901403
 10
115.3951094006
 20
192.5927228875
 10
114.1571865858
 20
192.5445315557
 10
112.5254368688
 20
192.4992650236
 10
110.5212726217
 20
192.4509778851
 10
108.2767332404
 20
192.4020580628
 10
105.9772011948
 20
192.3563011187
 10
103.6768491484
 20
192.3091561013
 10
101.4951750629
 20
192.2599903955
 10
99.6116359973
 20
192.2128483497
 10
98.1102414987
 20
192.1670891477
 10
97.0334963219
 20
192.1181682582
 10
96.4809630977
 20
192.0698831187
 10
96.4762964816
 20
192.0464729735
  0
LWPOLYLINE
  5
11C
330
1F
100
AcDbEntity
  8
0
  6
Continuous
 62
     7
370
    25
100
AcDbPolyline
 90
       15
 70
   128
 43
0.0
 10
116.2827828314
 20
191.4064187398
 10
116.1352745163
 20
191.3716901403
 10
115.3951094006
 20
191.3227228875
 10
114.1571865858
 20
191.2745315557
 10
112.5254368688
 20
191.2292650236
 10
110.5212726217
 20
191.1809778851
 10
108.2767332404
 20
191.1320580628
 10
105.9772011948
 20
191.0863011187
 10
103.6768491484
 20
191.0391561013
 10
101.4951750629
 20
190.9899903955
 10
99.6116359973
 20
190.9428483497
 10
98.1102414987
 20
190.8970891477
 10
97.0334963219
 20
190.8481682582
 10
96.4809630977
 20
190.7998831187
 10
96.4762964712
 20
190.7764729214
  0
LWPOLYLINE
  5
11D
330
1F
100
AcDbEntity
  8
0
  6
Continuous
 62
     7
370
    25
100
AcDbPolyline
 90
       15
 70
   128
 43
0.0
 10
116.2827723606
 20
190.1364162746
 10
116.1352745163
 20
190.1016901403
 10
115.3951094006
 20
190.0527228875
 10
114.1571865858
 20
190.0045315557
 10
112.5254368688
 20
189.9592650236
 10
110.5212726217
 20
189.9109778851
 10
108.2767332404
 20
189.8620580628
 10
105.9772011948
 20
189.8163011187
 10
103.6768491484
 20
189.7691561013
 10
101.4951750629
 20
189.7199903955
 10
99.6116359973
 20
189.6728483497
 10
98.1102414987
 20
189.6270891477
 10
97.0334963219
 20
189.5781682582
 10
96.4809630977
 20
189.5298831187
 10
96.4762964592
 20
189.5064728614
  0
LWPOLYLINE
  5
11E
330
1F
100
AcDbEntity
  8
0
  6
Continuous
 62
     7
370
    25
100
AcDbPolyline
 90
       15
 70
   128
 43
0.0
 10
116.2827618989
 20
188.8664138116
 10
116.1352745163
 20
188.8316901403
 10
115.3951094006
 20
188.7827228875
 10
114.1571865858
 20
188.7345315557
 10
112.5254368688
 20
188.6892650236
 10
110.5212726217
 20
188.6409778851
 10
108.2767332404
 20
188.5920580628
 10
105.9772011948
 20
188.5463011187
 10
103.6768491484
 20
188.4991561013
 10
101.4951750629
 20
188.4499903955
 10
99.6116359973
 20
188.4028483497
 10
98.1102414987
 20
188.3570891477
 10
97.0334963219
 20
188.3081682582
 10
96.4809630977
 20
188.2598831187
 10
96.4762964456
 20
188.236472793
  0
LWPOLYLINE
  5
11F
330
1F
100
AcDbEntity
  8
0
  6
Continuous
 62
     7
370
    25
100
AcDbPolyline
 90
       15
 70
   128
 43
0.0
 10
116.2827514461
 20
187.5964113506
 10
116.1352745163
 20
187.5616901403
 10
115.3951094006
 20
187.5127228875
 10
114.1571865858
 20
187.4645315557
 10
112.5254368688
 20
187.4192650236
 10
110.5212726217
 20
187.3709778851
 10
108.2767332404
 20
187.3220580628
 10
105.9772011948
 20
187.2763011187
 10
103.6768491484
 20
187.2291561013
 10
101.4951750629
 20
187.1799903955
 10
99.6116359973
 20
187.1328483497
 10
98.1102414987
 20
187.0870891477
 10
97.0334963219
 20
187.0381682582
 10
96.4809630977
 20
186.9898831187
 10
96.4762964302
 20
186.9664727158
  0
LWPOLYLINE
  5
120
330
1F
100
AcDbEntity
  8
0
  6
Continuous
 62
     7
370
    25
100
AcDbPolyline
 90
       15
 70
   128
 43
0.0
 10
116.2827410021
 20
186.3264088917
 10
116.1352745163
 20
186.2916901403
 10
115.3951094006
 20
186.2427228875
 10
114.1571865858
 20
186.1945315557
 10
112.5254368688
 20
186.1492650236
 10
110.5212726217
 20
186.1009778851
 10
108.2767332404
 20
186.0520580628
 10
105.9772011948
 20
186.0063011187
 10
103.6768491484
 20
185.9591561013
 10
101.4951750629
 20
185.9099903955
 10
99.6116359973
 20
185.8628483497
 10
98.1102414987
 20
185.8170891477
 10
97.0334963219
 20
185.7681682582
 10
96.4809630977
 20
185.7198831187
 10
96.476296413
 20
185.6964726294
  0
LWPOLYLINE
  5
121
330
1F
100
AcDbEntity
  8
0
  6
Continuous
 62
     7
370
    25
100
AcDbPolyline
 90
       15
 70
   128
 43
0.0
 10
116.2827305669
 20
185.0564064349
 10
116.1352745163
 20
185.0216901403
 10
115.3951094006
 20
184.9727228875
 10
114.1571865858
 20
184.9245315557
 10
112.5254368688
 20
184.8792650236
 10
110.5212726217
 20
184.8309778851
 10
108.2767332404
 20
184.7820580628
 10
105.9772011948
 20
184.7363011187
 10
103.6768491484
 20
184.6891561013
 10
101.4951750629
 20
184.6399903955
 10
99.6116359973
 20
184.5928483497
 10
98.1102414987
 20
184.5470891477
 10
97.0334963219
 20
184.4981682582
 10
96.4809630977
 20
184.4498831187
 10
96.4762963938
 20
184.4264725334
  0
LWPOLYLINE
  5
122
330
1F
100
AcDbEntity
  8
0
  6
Continuous
 62
     7
370
    25
100
AcDbPolyline
 90
       15
 70
   128
 43
0.0
 10
116.2827201404
 20
183.7864039802
 10
116.1352745163
 20
183.7516901403
 10
115.3951094006
 20
183.7027228875
 10
114.1571865858
 20
183.6545315557
 10
112.5254368688
 20
183.6092650236
 10
110.5212726217
 20
183.5609778851
 10
108.2767332404
 20
183.5120580628
 10
105.9772011948
 20
183.4663011187
 10
103.6768491484
 20
183.4191561013
 10
101.4951750629
 20
183.3699903955
 10
99.6116359973
 20
183.3228483497
 10
98.1102414987
 20
183.2770891477
 10
97.0334963219
 20
183.2281682582
 10
96.4809630977
 20
183.1798831187
 10
96.4762963727
 20
183.1564724273
  0
LWPOLYLINE
  5
123
330
1F
100
AcDbEntity
  8
0
  6
Continuous
 62
     7
370
    25
100
AcDbPolyline
 90
       15
 70
   128
 43
0.0
 10
116.2827097224
 20
182.5164015274
 10
116.1352745163
 20
182.4816901403
 10
115.3951094006
 20
182.4327228875
 10
114.1571865858
 20
182.3845315557
 10
112.5254368688
 20
182.3392650236
 10
110.5212726217
 20
182.2909778851
 10
108.2767332404
 20
182.2420580628
 10
105.9772011948
 20
182.1963011187
 10
103.6768491484
 20
182.1491561013
 10
101.4951750629
 20
182.0999903955
 10
99.6116359973
 20
182.0528483497
 10
98.1102414987
 20
182.0070891477
 10
97.0334963219
 20
181.9581682582
 10
96.4809630977
 20
181.9098831187
 10
96.4762963494
 20
181.8864723107
  0
LWPOLYLINE
  5
124
330
1F
100
AcDbEntity
  8
0
  6
Continuous
 62
     7
370
    25
100
AcDbPolyline
 90
       12
 70
   128
 43
0.0
 10
116.282699313
 20
181.2463990767
 10
116.1352745163
 20
181.2116901403
 10
115.3951094006
 20
181.1627228875
 10
114.1571865858
 20
181.1145315557
 10
112.5254368688
 20
181.0692650236
 10
110.5212726217
 20
181.0209778851
 10
108.2767332404
 20
180.9720580628
 10
105.9772011948
 20
180.9263011187
 10
103.6768491484
 20
180.8791561013
 10
101.4951750629
 20
180.8299903955
 10
99.6116359973
 20
180.7828483497
 10
98.4003564733
 20
180.7472498056
  0
LINE
  5
125
330
1F
100
AcDbEntity
  8
0
  6
Continuous
 62
     7
370
    25
100
AcDbLine
 10
97.8502893229
 20
181.1441248039
 30
0.0
 11
98.4003564733
 21
180.7472498056
 31
0.0
  0
LWPOLYLINE
  5
126
330
1F
100
AcDbEntity
  8
0
  6
Continuous
 62
     7
370
    25
100
AcDbPolyline
 90
       15
 70
   128
 43
0.0
 10
115.8768143286
 20
203.143341602
 10
114.5615155126
 20
203.0974843549
 10
112.8667208586
 20
203.0541594737
 10
110.8075350468
 20
203.0078528834
 10
108.8175032452
 20
202.9669557681
 10
106.7650458971
 20
202.9279591902
 10
104.7175614787
 20
202.8901001676
 10
102.6891410097
 20
202.8496681068
 10
100.7964052718
 20
202.8087608558
 10
99.1451457711
 20
202.7697233479
 10
97.7799538966
 20
202.7318923049
 10
96.714207057
 20
202.6914832387
 10
96.0203474846
 20
202.6505663033
 10
95.7319365321
 20
202.6114882499
 10
95.7562078566
 20
202.6032333886
  0
LINE
  5
127
330
1F
100
AcDbEntity
  8
0
  6
Continuous
 62
     7
370
    25
100
AcDbLine
 10
117.010118622
 20
201.9684019819
 30
0.0
 11
117.0218462802
 21
201.9662561066
 31
0.0
  0
LWPOLYLINE
  5
128
330
1F
100
AcDbEntity
  8
0
  6
Continuous
 62
     7
370
    25
100
AcDbPolyline
 90
       17
 70
   128
 43
0.0
 10
117.0062100664
 20
201.9638866026
 10
116.7232410664
 20
201.9210056211
 10
115.8768143286
 20
201.873341602
 10
114.5615155126
 20
201.8274843549
 10
112.8667208586
 20
201.7841594737
 10
110.8075350468
 20
201.7378528834
 10
108.8175032452
 20
201.6969557681
 10
106.7650458971
 20
201.6579591902
 10
104.7175614787
 20
201.6201001676
 10
102.6891410097
 20
201.5796681068
 10
100.7964052718
 20
201.5387608558
 10
99.1451457711
 20
201.4997233479
 10
97.7799538966
 20
201.4618923049
 10
96.714207057
 20
201.4214832387
 10
96.0203474846
 20
201.3805663033
 10
95.7319365321
 20
201.3414882499
 10
95.7562078566
 20
201.3332333886
  0
LINE
  5
129
330
1F
100
AcDbEntity
  8
0
  6
Continuous
 62
     7
370
    25
100
AcDbLine
 10
117.010118622
 20
200.6984019819
 30
0.0
 11
117.0218462802
 21
200.6962561066
 31
0.0
  0
LWPOLYLINE
  5
12A
330
1F
100
AcDbEntity
  8
0
  6
Continuous
 62
     7
370
    25
100
AcDbPolyline
 90
       17
 70
   128
 43
0.0
 10
117.0061986565
 20
200.6938848735
 10
116.7232410664
 20
200.6510056211
 10
115.8768143286
 20
200.603341602
 10
114.5615155126
 20
200.5574843549
 10
112.8667208586
 20
200.5141594737
 10
110.8075350468
 20
200.4678528834
 10
108.8175032452
 20
200.4269557681
 10
106.7650458971
 20
200.3879591902
 10
104.7175614787
 20
200.3501001676
 10
102.6891410097
 20
200.3096681068
 10
100.7964052718
 20
200.2687608558
 10
99.1451457711
 20
200.2297233479
 10
97.7799538966
 20
200.1918923049
 10
96.714207057
 20
200.1514832387
 10
96.0203474846
 20
200.1105663033
 10
95.7319365321
 20
200.0714882499
 10
95.7562078566
 20
200.0632333886
  0
LINE
  5
12B
330
1F
100
AcDbEntity
  8
0
  6
Continuous
 62
     7
370
    25
100
AcDbLine
 10
117.010118622
 20
199.4284019819
 30
0.0
 11
117.0218462802
 21
199.4262561066
 31
0.0
  0
LWPOLYLINE
  5
12C
330
1F
100
AcDbEntity
  8
0
  6
Continuous
 62
     7
370
    25
100
AcDbPolyline
 90
       17
 70
   128
 43
0.0
 10
117.0061872357
 20
199.4238831428
 10
116.7232410664
 20
199.3810056211
 10
115.8768143286
 20
199.333341602
 10
114.5615155126
 20
199.2874843549
 10
112.8667208586
 20
199.2441594737
 10
110.8075350468
 20
199.1978528834
 10
108.8175032452
 20
199.1569557681
 10
106.7650458971
 20
199.1179591902
 10
104.7175614787
 20
199.0801001676
 10
102.6891410097
 20
199.0396681068
 10
100.7964052718
 20
198.9987608558
 10
99.1451457711
 20
198.9597233479
 10
97.7799538966
 20
198.9218923049
 10
96.714207057
 20
198.8814832387
 10
96.0203474846
 20
198.8405663033
 10
95.7319365321
 20
198.8014882499
 10
95.7562078566
 20
198.7932333886
  0
LINE
  5
12D
330
1F
100
AcDbEntity
  8
0
  6
Continuous
 62
     7
370
    25
100
AcDbLine
 10
117.010118622
 20
198.1584019819
 30
0.0
 11
117.0218462802
 21
198.1562561066
 31
0.0
  0
LWPOLYLINE
  5
12E
330
1F
100
AcDbEntity
  8
0
  6
Continuous
 62
     7
370
    25
100
AcDbPolyline
 90
       17
 70
   128
 43
0.0
 10
117.006175804
 20
198.1538814105
 10
116.7232410664
 20
198.1110056211
 10
115.8768143286
 20
198.063341602
 10
114.5615155126
 20
198.0174843549
 10
112.8667208586
 20
197.9741594737
 10
110.8075350468
 20
197.9278528834
 10
108.8175032452
 20
197.8869557681
 10
106.7650458971
 20
197.8479591902
 10
104.7175614787
 20
197.8101001676
 10
102.6891410097
 20
197.7696681068
 10
100.7964052718
 20
197.7287608558
 10
99.1451457711
 20
197.6897233479
 10
97.7799538966
 20
197.6518923049
 10
96.714207057
 20
197.6114832387
 10
96.0203474846
 20
197.5705663033
 10
95.7319365321
 20
197.5314882499
 10
95.7562078566
 20
197.5232333886
  0
LINE
  5
12F
330
1F
100
AcDbEntity
  8
0
  6
Continuous
 62
     7
370
    25
100
AcDbLine
 10
117.010118622
 20
196.8884019819
 30
0.0
 11
117.0218462802
 21
196.8862561066
 31
0.0
  0
LWPOLYLINE
  5
130
330
1F
100
AcDbEntity
  8
0
  6
Continuous
 62
     7
370
    25
100
AcDbPolyline
 90
       17
 70
   128
 43
0.0
 10
117.0061643615
 20
196.8838796765
 10
116.7232410664
 20
196.8410056211
 10
115.8768143286
 20
196.793341602
 10
114.5615155126
 20
196.7474843549
 10
112.8667208586
 20
196.7041594737
 10
110.8075350468
 20
196.6578528834
 10
108.8175032452
 20
196.6169557681
 10
106.7650458971
 20
196.5779591902
 10
104.7175614787
 20
196.5401001676
 10
102.6891410097
 20
196.4996681068
 10
100.7964052718
 20
196.4587608558
 10
99.1451457711
 20
196.4197233479
 10
97.7799538966
 20
196.3818923049
 10
96.714207057
 20
196.3414832387
 10
96.0203474846
 20
196.3005663033
 10
95.7319365321
 20
196.2614882499
 10
95.7562078566
 20
196.2532333886
  0
LINE
  5
131
330
1F
100
AcDbEntity
  8
0
  6
Continuous
 62
     7
370
    25
100
AcDbLine
 10
117.010118622
 20
195.6184019819
 30
0.0
 11
117.0218462802
 21
195.6162561066
 31
0.0
  0
LWPOLYLINE
  5
132
330
1F
100
AcDbEntity
  8
0
  6
Continuous
 62
     7
370
    25
100
AcDbPolyline
 90
       17
 70
   128
 43
0.0
 10
117.0061529083
 20
195.6138779409
 10
116.7232410664
 20
195.5710056211
 10
115.8768143286
 20
195.523341602
 10
114.5615155126
 20
195.4774843549
 10
112.8667208586
 20
195.4341594737
 10
110.8075350468
 20
195.3878528834
 10
108.8175032452
 20
195.3469557681
 10
106.7650458971
 20
195.3079591902
 10
104.7175614787
 20
195.2701001676
 10
102.6891410097
 20
195.2296681068
 10
100.7964052718
 20
195.1887608558
 10
99.1451457711
 20
195.1497233479
 10
97.7799538966
 20
195.1118923049
 10
96.714207057
 20
195.0714832387
 10
96.0203474846
 20
195.0305663033
 10
95.7319365321
 20
194.9914882499
 10
95.7562078566
 20
194.9832333886
  0
LINE
  5
133
330
1F
100
AcDbEntity
  8
0
  6
Continuous
 62
     7
370
    25
100
AcDbLine
 10
117.010118622
 20
194.3484019819
 30
0.0
 11
117.0218462802
 21
194.3462561066
 31
0.0
  0
LWPOLYLINE
  5
134
330
1F
100
AcDbEntity
  8
0
  6
Continuous
 62
     7
370
    25
100
AcDbPolyline
 90
       17
 70
   128
 43
0.0
 10
117.0061414443
 20
194.3438762036
 10
116.7232410664
 20
194.3010056211
 10
115.8768143286
 20
194.253341602
 10
114.5615155126
 20
194.2074843549
 10
112.8667208586
 20
194.1641594737
 10
110.8075350468
 20
194.1178528834
 10
108.8175032452
 20
194.0769557681
 10
106.7650458971
 20
194.0379591902
 10
104.7175614787
 20
194.0001001676
 10
102.6891410097
 20
193.9596681068
 10
100.7964052718
 20
193.9187608558
 10
99.1451457711
 20
193.8797233479
 10
97.7799538966
 20
193.8418923049
 10
96.714207057
 20
193.8014832387
 10
96.0203474846
 20
193.7605663033
 10
95.7319365321
 20
193.7214882499
 10
95.7562078566
 20
193.7132333886
  0
LINE
  5
135
330
1F
100
AcDbEntity
  8
0
  6
Continuous
 62
     7
370
    25
100
AcDbLine
 10
117.010118622
 20
193.0784019819
 30
0.0
 11
117.0218462802
 21
193.0762561066
 31
0.0
  0
LWPOLYLINE
  5
136
330
1F
100
AcDbEntity
  8
0
  6
Continuous
 62
     7
370
    25
100
AcDbPolyline
 90
       17
 70
   128
 43
0.0
 10
117.0061299696
 20
193.0738744648
 10
116.7232410664
 20
193.0310056211
 10
115.8768143286
 20
192.983341602
 10
114.5615155126
 20
192.9374843549
 10
112.8667208586
 20
192.8941594737
 10
110.8075350468
 20
192.8478528834
 10
108.8175032452
 20
192.8069557681
 10
106.7650458971
 20
192.7679591902
 10
104.7175614787
 20
192.7301001676
 10
102.6891410097
 20
192.6896681068
 10
100.7964052718
 20
192.6487608558
 10
99.1451457711
 20
192.6097233479
 10
97.7799538966
 20
192.5718923049
 10
96.714207057
 20
192.5314832387
 10
96.0203474846
 20
192.4905663033
 10
95.7319365321
 20
192.4514882499
 10
95.7562078566
 20
192.4432333886
  0
LINE
  5
137
330
1F
100
AcDbEntity
  8
0
  6
Continuous
 62
     7
370
    25
100
AcDbLine
 10
117.010118622
 20
191.8084019819
 30
0.0
 11
117.0218462802
 21
191.8062561066
 31
0.0
  0
LWPOLYLINE
  5
138
330
1F
100
AcDbEntity
  8
0
  6
Continuous
 62
     7
370
    25
100
AcDbPolyline
 90
       17
 70
   128
 43
0.0
 10
117.0061184843
 20
191.8038727243
 10
116.7232410664
 20
191.7610056211
 10
115.8768143286
 20
191.713341602
 10
114.5615155126
 20
191.6674843549
 10
112.8667208586
 20
191.6241594737
 10
110.8075350468
 20
191.5778528834
 10
108.8175032452
 20
191.5369557681
 10
106.7650458971
 20
191.4979591902
 10
104.7175614787
 20
191.4601001676
 10
102.6891410097
 20
191.4196681068
 10
100.7964052718
 20
191.3787608558
 10
99.1451457711
 20
191.3397233479
 10
97.7799538966
 20
191.3018923049
 10
96.714207057
 20
191.2614832387
 10
96.0203474846
 20
191.2205663033
 10
95.7319365321
 20
191.1814882499
 10
95.7562078566
 20
191.1732333886
  0
LINE
  5
139
330
1F
100
AcDbEntity
  8
0
  6
Continuous
 62
     7
370
    25
100
AcDbLine
 10
117.010118622
 20
190.5384019819
 30
0.0
 11
117.0218462802
 21
190.5362561066
 31
0.0
  0
LWPOLYLINE
  5
13A
330
1F
100
AcDbEntity
  8
0
  6
Continuous
 62
     7
370
    25
100
AcDbPolyline
 90
       17
 70
   128
 43
0.0
 10
117.0061069884
 20
190.5338709822
 10
116.7232410664
 20
190.4910056211
 10
115.8768143286
 20
190.443341602
 10
114.5615155126
 20
190.3974843549
 10
112.8667208586
 20
190.3541594737
 10
110.8075350468
 20
190.3078528834
 10
108.8175032452
 20
190.2669557681
 10
106.7650458971
 20
190.2279591902
 10
104.7175614787
 20
190.1901001676
 10
102.6891410097
 20
190.1496681068
 10
100.7964052718
 20
190.1087608558
 10
99.1451457711
 20
190.0697233479
 10
97.7799538966
 20
190.0318923049
 10
96.714207057
 20
189.9914832387
 10
96.0203474846
 20
189.9505663033
 10
95.7319365321
 20
189.9114882499
 10
95.7562078566
 20
189.9032333886
  0
LINE
  5
13B
330
1F
100
AcDbEntity
  8
0
  6
Continuous
 62
     7
370
    25
100
AcDbLine
 10
117.010118622
 20
189.2684019819
 30
0.0
 11
117.0218462802
 21
189.2662561066
 31
0.0
  0
LWPOLYLINE
  5
13C
330
1F
100
AcDbEntity
  8
0
  6
Continuous
 62
     7
370
    25
100
AcDbPolyline
 90
       17
 70
   128
 43
0.0
 10
117.006095482
 20
189.2638692385
 10
116.7232410664
 20
189.2210056211
 10
115.8768143286
 20
189.173341602
 10
114.5615155126
 20
189.1274843549
 10
112.8667208586
 20
189.0841594737
 10
110.8075350468
 20
189.0378528834
 10
108.8175032452
 20
188.9969557681
 10
106.7650458971
 20
188.9579591902
 10
104.7175614787
 20
188.9201001676
 10
102.6891410097
 20
188.8796681068
 10
100.7964052718
 20
188.8387608558
 10
99.1451457711
 20
188.7997233479
 10
97.7799538966
 20
188.7618923049
 10
96.714207057
 20
188.7214832387
 10
96.0203474846
 20
188.6805663033
 10
95.7319365321
 20
188.6414882499
 10
95.7562078566
 20
188.6332333886
  0
LINE
  5
13D
330
1F
100
AcDbEntity
  8
0
  6
Continuous
 62
     7
370
    25
100
AcDbLine
 10
117.010118622
 20
187.9984019819
 30
0.0
 11
117.0218462802
 21
187.9962561066
 31
0.0
  0
LWPOLYLINE
  5
13E
330
1F
100
AcDbEntity
  8
0
  6
Continuous
 62
     7
370
    25
100
AcDbPolyline
 90
       17
 70
   128
 43
0.0
 10
117.0060839651
 20
187.9938674932
 10
116.7232410664
 20
187.9510056211
 10
115.8768143286
 20
187.903341602
 10
114.5615155126
 20
187.8574843549
 10
112.8667208586
 20
187.8141594737
 10
110.8075350468
 20
187.7678528834
 10
108.8175032452
 20
187.7269557681
 10
106.7650458971
 20
187.6879591902
 10
104.7175614787
 20
187.6501001676
 10
102.6891410097
 20
187.6096681068
 10
100.7964052718
 20
187.5687608558
 10
99.1451457711
 20
187.5297233479
 10
97.7799538966
 20
187.4918923049
 10
96.714207057
 20
187.4514832387
 10
96.0203474846
 20
187.4105663033
 10
95.7319365321
 20
187.3714882499
 10
95.7562078566
 20
187.3632333886
  0
LINE
  5
13F
330
1F
100
AcDbEntity
  8
0
  6
Continuous
 62
     7
370
    25
100
AcDbLine
 10
117.010118622
 20
186.7284019819
 30
0.0
 11
117.0218462802
 21
186.7262561066
 31
0.0
  0
LWPOLYLINE
  5
140
330
1F
100
AcDbEntity
  8
0
  6
Continuous
 62
     7
370
    25
100
AcDbPolyline
 90
       17
 70
   128
 43
0.0
 10
117.0060724377
 20
186.7238657464
 10
116.7232410664
 20
186.6810056211
 10
115.8768143286
 20
186.633341602
 10
114.5615155126
 20
186.5874843549
 10
112.8667208586
 20
186.5441594737
 10
110.8075350468
 20
186.4978528834
 10
108.8175032452
 20
186.4569557681
 10
106.7650458971
 20
186.4179591902
 10
104.7175614787
 20
186.3801001676
 10
102.6891410097
 20
186.3396681068
 10
100.7964052718
 20
186.2987608558
 10
99.1451457711
 20
186.2597233479
 10
97.7799538966
 20
186.2218923049
 10
96.714207057
 20
186.1814832387
 10
96.0203474846
 20
186.1405663033
 10
95.7319365321
 20
186.1014882499
 10
95.7562078566
 20
186.0932333886
  0
LINE
  5
141
330
1F
100
AcDbEntity
  8
0
  6
Continuous
 62
     7
370
    25
100
AcDbLine
 10
117.010118622
 20
185.4584019819
 30
0.0
 11
117.0218462802
 21
185.4562561066
 31
0.0
  0
LWPOLYLINE
  5
142
330
1F
100
AcDbEntity
  8
0
  6
Continuous
 62
     7
370
    25
100
AcDbPolyline
 90
       17
 70
   128
 43
0.0
 10
117.0060608999
 20
185.453863998
 10
116.7232410664
 20
185.4110056211
 10
115.8768143286
 20
185.363341602
 10
114.5615155126
 20
185.3174843549
 10
112.8667208586
 20
185.2741594737
 10
110.8075350468
 20
185.2278528834
 10
108.8175032452
 20
185.1869557681
 10
106.7650458971
 20
185.1479591902
 10
104.7175614787
 20
185.1101001676
 10
102.6891410097
 20
185.0696681068
 10
100.7964052718
 20
185.0287608558
 10
99.1451457711
 20
184.9897233479
 10
97.7799538966
 20
184.9518923049
 10
96.714207057
 20
184.9114832387
 10
96.0203474846
 20
184.8705663033
 10
95.7319365321
 20
184.8314882499
 10
95.7562078566
 20
184.8232333886
  0
LINE
  5
143
330
1F
100
AcDbEntity
  8
0
  6
Continuous
 62
     7
370
    25
100
AcDbLine
 10
117.010118622
 20
184.1884019819
 30
0.0
 11
117.0218462802
 21
184.1862561066
 31
0.0
  0
LWPOLYLINE
  5
144
330
1F
100
AcDbEntity
  8
0
  6
Continuous
 62
     7
370
    25
100
AcDbPolyline
 90
       17
 70
   128
 43
0.0
 10
117.0060493518
 20
184.183862248
 10
116.7232410664
 20
184.1410056211
 10
115.8768143286
 20
184.093341602
 10
114.5615155126
 20
184.0474843549
 10
112.8667208586
 20
184.0041594737
 10
110.8075350468
 20
183.9578528834
 10
108.8175032452
 20
183.9169557681
 10
106.7650458971
 20
183.8779591902
 10
104.7175614787
 20
183.8401001676
 10
102.6891410097
 20
183.7996681068
 10
100.7964052718
 20
183.7587608558
 10
99.1451457711
 20
183.7197233479
 10
97.7799538966
 20
183.6818923049
 10
96.714207057
 20
183.6414832387
 10
96.0203474846
 20
183.6005663033
 10
95.7319365321
 20
183.5614882499
 10
95.7562078566
 20
183.5532333886
  0
LINE
  5
145
330
1F
100
AcDbEntity
  8
0
  6
Continuous
 62
     7
370
    25
100
AcDbLine
 10
117.010118622
 20
182.9184019819
 30
0.0
 11
117.0218462802
 21
182.9162561066
 31
0.0
  0
LWPOLYLINE
  5
146
330
1F
100
AcDbEntity
  8
0
  6
Continuous
 62
     7
370
    25
100
AcDbPolyline
 90
       17
 70
   128
 43
0.0
 10
117.0060377934
 20
182.9138604964
 10
116.7232410664
 20
182.8710056211
 10
115.8768143286
 20
182.823341602
 10
114.5615155126
 20
182.7774843549
 10
112.8667208586
 20
182.7341594737
 10
110.8075350468
 20
182.6878528834
 10
108.8175032452
 20
182.6469557681
 10
106.7650458971
 20
182.6079591902
 10
104.7175614787
 20
182.5701001676
 10
102.6891410097
 20
182.5296681068
 10
100.7964052718
 20
182.4887608558
 10
99.1451457711
 20
182.4497233479
 10
97.7799538966
 20
182.4118923049
 10
96.714207057
 20
182.3714832387
 10
96.0203474846
 20
182.3305663033
 10
95.7319365321
 20
182.2914882499
 10
95.7562078566
 20
182.2832333886
  0
LINE
  5
147
330
1F
100
AcDbEntity
  8
0
  6
Continuous
 62
     7
370
    25
100
AcDbLine
 10
117.010118622
 20
181.6484019819
 30
0.0
 11
117.0218462802
 21
181.6462561066
 31
0.0
  0
LWPOLYLINE
  5
148
330
1F
100
AcDbEntity
  8
0
  6
Continuous
 62
     7
370
    25
100
AcDbPolyline
 90
       13
 70
   128
 43
0.0
 10
117.0060262248
 20
181.6438587433
 10
116.7232410664
 20
181.6010056211
 10
115.8768143286
 20
181.553341602
 10
114.5615155126
 20
181.5074843549
 10
112.8667208586
 20
181.4641594737
 10
110.8075350468
 20
181.4178528834
 10
108.8175032452
 20
181.3769557681
 10
106.7650458971
 20
181.3379591902
 10
104.7175614787
 20
181.3001001676
 10
102.6891410097
 20
181.2596681068
 10
100.7964052718
 20
181.2187608558
 10
99.1451457711
 20
181.1797233479
 10
97.8502994524
 20
181.1441251226
  0
LINE
  5
149
330
1F
100
AcDbEntity
  8
0
  6
Continuous
 62
     7
370
    25
100
AcDbLine
 10
115.8768143286
 20
203.143341602
 30
0.0
 11
116.8369877137
 21
203.143341602
 31
0.0
  0
LWPOLYLINE
  5
14A
330
1F
100
AcDbEntity
  8
0
  6
Continuous
 62
     7
370
    25
100
AcDbPolyline
 90
        7
 70
   128
 43
0.0
 10
96.4271322937
 20
87.3419041609
 10
96.4205378628
 20
87.3441622383
 10
96.7404251691
 20
87.386802082
 10
97.5056901204
 20
87.4313192472
 10
98.6680209913
 20
87.4746989573
 10
100.1472578214
 20
87.5155720204
 10
100.7462284398
 20
87.5304695717
  0
LWPOLYLINE
  5
14B
330
1F
100
AcDbEntity
  8
0
  6
Continuous
 62
     7
370
    25
100
AcDbPolyline
 90
       12
 70
   128
 43
0.0
 10
97.8502905876
 20
180.0328748471
 10
99.5180038754
 20
180.0776321453
 10
101.5809981737
 20
180.1248903268
 10
103.9227655455
 20
180.173385004
 10
106.3526194851
 20
180.2192342171
 10
108.7822632059
 20
180.2650102063
 10
111.1271022856
 20
180.3134921871
 10
113.1960342612
 20
180.3608019028
 10
114.8702354079
 20
180.4055423329
 10
116.1252702308
 20
180.4534207386
 10
116.8517670694
 20
180.5016467117
 10
116.9752689126
 20
180.5369480504
  0
LWPOLYLINE
  5
14C
330
1F
100
AcDbEntity
  8
0
  6
Continuous
 62
     7
370
    25
100
AcDbPolyline
 90
       16
 70
   128
 43
0.0
 10
95.7659812478
 20
181.1763967447
 10
95.7774424081
 20
181.1919456815
 10
96.1414401372
 20
181.2284342199
 10
96.8438388555
 20
181.2660404012
 10
97.8502905876
 20
181.3028748471
 10
99.5180038754
 20
181.3476321453
 10
101.5809981737
 20
181.3948903268
 10
103.9227655455
 20
181.443385004
 10
106.3526194851
 20
181.4892342171
 10
108.7822632059
 20
181.5350102063
 10
111.1271022856
 20
181.5834921871
 10
113.1960342612
 20
181.6308019028
 10
114.8702354079
 20
181.6755423329
 10
116.1252702308
 20
181.7234207386
 10
116.8517670694
 20
181.7716467117
 10
116.9752689126
 20
181.8069480504
  0
LWPOLYLINE
  5
14D
330
1F
100
AcDbEntity
  8
0
  6
Continuous
 62
     7
370
    25
100
AcDbPolyline
 90
       16
 70
   128
 43
0.0
 10
95.7659849903
 20
182.4464018221
 10
95.7774424081
 20
182.4619456815
 10
96.1414401372
 20
182.4984342199
 10
96.8438388555
 20
182.5360404012
 10
97.8502905876
 20
182.5728748471
 10
99.5180038754
 20
182.6176321453
 10
101.5809981737
 20
182.6648903268
 10
103.9227655455
 20
182.713385004
 10
106.3526194851
 20
182.7592342171
 10
108.7822632059
 20
182.8050102063
 10
111.1271022856
 20
182.8534921871
 10
113.1960342612
 20
182.9008019028
 10
114.8702354079
 20
182.9455423329
 10
116.1252702308
 20
182.9934207386
 10
116.8517670694
 20
183.0416467117
 10
116.9752689126
 20
183.0769480504
  0
LWPOLYLINE
  5
14E
330
1F
100
AcDbEntity
  8
0
  6
Continuous
 62
     7
370
    25
100
AcDbPolyline
 90
       16
 70
   128
 43
0.0
 10
95.7659887329
 20
183.7164068995
 10
95.7774424081
 20
183.7319456815
 10
96.1414401372
 20
183.7684342199
 10
96.8438388555
 20
183.8060404012
 10
97.8502905876
 20
183.8428748471
 10
99.5180038754
 20
183.8876321453
 10
101.5809981737
 20
183.9348903268
 10
103.9227655455
 20
183.983385004
 10
106.3526194851
 20
184.0292342171
 10
108.7822632059
 20
184.0750102063
 10
111.1271022856
 20
184.1234921871
 10
113.1960342612
 20
184.1708019028
 10
114.8702354079
 20
184.2155423329
 10
116.1252702308
 20
184.2634207386
 10
116.8517670694
 20
184.3116467117
 10
116.9752689126
 20
184.3469480504
  0
LWPOLYLINE
  5
14F
330
1F
100
AcDbEntity
  8
0
  6
Continuous
 62
     7
370
    25
100
AcDbPolyline
 90
       16
 70
   128
 43
0.0
 10
95.7659924755
 20
184.9864119771
 10
95.7774424081
 20
185.0019456815
 10
96.1414401372
 20
185.0384342199
 10
96.8438388555
 20
185.0760404012
 10
97.8502905876
 20
185.1128748471
 10
99.5180038754
 20
185.1576321453
 10
101.5809981737
 20
185.2048903268
 10
103.9227655455
 20
185.253385004
 10
106.3526194851
 20
185.2992342171
 10
108.7822632059
 20
185.3450102063
 10
111.1271022856
 20
185.3934921871
 10
113.1960342612
 20
185.4408019028
 10
114.8702354079
 20
185.4855423329
 10
116.1252702308
 20
185.5334207386
 10
116.8517670694
 20
185.5816467117
 10
116.9752689126
 20
185.6169480504
  0
LWPOLYLINE
  5
150
330
1F
100
AcDbEntity
  8
0
  6
Continuous
 62
     7
370
    25
100
AcDbPolyline
 90
       16
 70
   128
 43
0.0
 10
95.7659962182
 20
186.2564170546
 10
95.7774424081
 20
186.2719456815
 10
96.1414401372
 20
186.3084342199
 10
96.8438388555
 20
186.3460404012
 10
97.8502905876
 20
186.3828748471
 10
99.5180038754
 20
186.4276321453
 10
101.5809981737
 20
186.4748903268
 10
103.9227655455
 20
186.523385004
 10
106.3526194851
 20
186.5692342171
 10
108.7822632059
 20
186.6150102063
 10
111.1271022856
 20
186.6634921871
 10
113.1960342612
 20
186.7108019028
 10
114.8702354079
 20
186.7555423329
 10
116.1252702308
 20
186.8034207386
 10
116.8517670694
 20
186.8516467117
 10
116.9752689126
 20
186.8869480504
  0
LWPOLYLINE
  5
151
330
1F
100
AcDbEntity
  8
0
  6
Continuous
 62
     7
370
    25
100
AcDbPolyline
 90
       16
 70
   128
 43
0.0
 10
95.765999961
 20
187.5264221323
 10
95.7774424081
 20
187.5419456815
 10
96.1414401372
 20
187.5784342199
 10
96.8438388555
 20
187.6160404012
 10
97.8502905876
 20
187.6528748471
 10
99.5180038754
 20
187.6976321453
 10
101.5809981737
 20
187.7448903268
 10
103.9227655455
 20
187.793385004
 10
106.3526194851
 20
187.8392342171
 10
108.7822632059
 20
187.8850102063
 10
111.1271022856
 20
187.9334921871
 10
113.1960342612
 20
187.9808019028
 10
114.8702354079
 20
188.0255423329
 10
116.1252702308
 20
188.0734207386
 10
116.8517670694
 20
188.1216467117
 10
116.9752689126
 20
188.1569480504
  0
LWPOLYLINE
  5
152
330
1F
100
AcDbEntity
  8
0
  6
Continuous
 62
     7
370
    25
100
AcDbPolyline
 90
       16
 70
   128
 43
0.0
 10
95.7660037037
 20
188.7964272099
 10
95.7774424081
 20
188.8119456815
 10
96.1414401372
 20
188.8484342199
 10
96.8438388555
 20
188.8860404012
 10
97.8502905876
 20
188.9228748471
 10
99.5180038754
 20
188.9676321453
 10
101.5809981737
 20
189.0148903268
 10
103.9227655455
 20
189.063385004
 10
106.3526194851
 20
189.1092342171
 10
108.7822632059
 20
189.1550102063
 10
111.1271022856
 20
189.2034921871
 10
113.1960342612
 20
189.2508019028
 10
114.8702354079
 20
189.2955423329
 10
116.1252702308
 20
189.3434207386
 10
116.8517670694
 20
189.3916467117
 10
116.9752689126
 20
189.4269480504
  0
LWPOLYLINE
  5
153
330
1F
100
AcDbEntity
  8
0
  6
Continuous
 62
     7
370
    25
100
AcDbPolyline
 90
       16
 70
   128
 43
0.0
 10
95.7660074464
 20
190.0664322875
 10
95.7774424081
 20
190.0819456815
 10
96.1414401372
 20
190.1184342199
 10
96.8438388555
 20
190.1560404012
 10
97.8502905876
 20
190.1928748471
 10
99.5180038754
 20
190.2376321453
 10
101.5809981737
 20
190.2848903268
 10
103.9227655455
 20
190.333385004
 10
106.3526194851
 20
190.3792342171
 10
108.7822632059
 20
190.4250102063
 10
111.1271022856
 20
190.4734921871
 10
113.1960342612
 20
190.5208019028
 10
114.8702354079
 20
190.5655423329
 10
116.1252702308
 20
190.6134207386
 10
116.8517670694
 20
190.6616467117
 10
116.9752689126
 20
190.6969480504
  0
LWPOLYLINE
  5
154
330
1F
100
AcDbEntity
  8
0
  6
Continuous
 62
     7
370
    25
100
AcDbPolyline
 90
       16
 70
   128
 43
0.0
 10
95.7660111892
 20
191.3364373651
 10
95.7774424081
 20
191.3519456815
 10
96.1414401372
 20
191.3884342199
 10
96.8438388555
 20
191.4260404012
 10
97.8502905876
 20
191.4628748471
 10
99.5180038754
 20
191.5076321453
 10
101.5809981737
 20
191.5548903268
 10
103.9227655455
 20
191.603385004
 10
106.3526194851
 20
191.6492342171
 10
108.7822632059
 20
191.6950102063
 10
111.1271022856
 20
191.7434921871
 10
113.1960342612
 20
191.7908019028
 10
114.8702354079
 20
191.8355423329
 10
116.1252702308
 20
191.8834207386
 10
116.8517670694
 20
191.9316467117
 10
116.9752689126
 20
191.9669480504
  0
LWPOLYLINE
  5
155
330
1F
100
AcDbEntity
  8
0
  6
Continuous
 62
     7
370
    25
100
AcDbPolyline
 90
       16
 70
   128
 43
0.0
 10
95.7660149318
 20
192.6064424427
 10
95.7774424081
 20
192.6219456815
 10
96.1414401372
 20
192.6584342199
 10
96.8438388555
 20
192.6960404012
 10
97.8502905876
 20
192.7328748471
 10
99.5180038754
 20
192.7776321453
 10
101.5809981737
 20
192.8248903268
 10
103.9227655455
 20
192.873385004
 10
106.3526194851
 20
192.9192342171
 10
108.7822632059
 20
192.9650102063
 10
111.1271022856
 20
193.0134921871
 10
113.1960342612
 20
193.0608019028
 10
114.8702354079
 20
193.1055423329
 10
116.1252702308
 20
193.1534207386
 10
116.8517670694
 20
193.2016467117
 10
116.9752689126
 20
193.2369480504
  0
LWPOLYLINE
  5
156
330
1F
100
AcDbEntity
  8
0
  6
Continuous
 62
     7
370
    25
100
AcDbPolyline
 90
       16
 70
   128
 43
0.0
 10
95.7660186745
 20
193.8764475202
 10
95.7774424081
 20
193.8919456815
 10
96.1414401372
 20
193.9284342199
 10
96.8438388555
 20
193.9660404012
 10
97.8502905876
 20
194.0028748471
 10
99.5180038754
 20
194.0476321453
 10
101.5809981737
 20
194.0948903268
 10
103.9227655455
 20
194.143385004
 10
106.3526194851
 20
194.1892342171
 10
108.7822632059
 20
194.2350102063
 10
111.1271022856
 20
194.2834921871
 10
113.1960342612
 20
194.3308019028
 10
114.8702354079
 20
194.3755423329
 10
116.1252702308
 20
194.4234207386
 10
116.8517670694
 20
194.4716467117
 10
116.9752689126
 20
194.5069480504
  0
LWPOLYLINE
  5
157
330
1F
100
AcDbEntity
  8
0
  6
Continuous
 62
     7
370
    25
100
AcDbPolyline
 90
       16
 70
   128
 43
0.0
 10
95.766022417
 20
195.1464525976
 10
95.7774424081
 20
195.1619456815
 10
96.1414401372
 20
195.1984342199
 10
96.8438388555
 20
195.2360404012
 10
97.8502905876
 20
195.2728748471
 10
99.5180038754
 20
195.3176321453
 10
101.5809981737
 20
195.3648903268
 10
103.9227655455
 20
195.413385004
 10
106.3526194851
 20
195.4592342171
 10
108.7822632059
 20
195.5050102063
 10
111.1271022856
 20
195.5534921871
 10
113.1960342612
 20
195.6008019028
 10
114.8702354079
 20
195.6455423329
 10
116.1252702308
 20
195.6934207386
 10
116.8517670694
 20
195.7416467117
 10
116.9752689126
 20
195.7769480504
  0
LWPOLYLINE
  5
158
330
1F
100
AcDbEntity
  8
0
  6
Continuous
 62
     7
370
    25
100
AcDbPolyline
 90
       16
 70
   128
 43
0.0
 10
95.7660261595
 20
196.4164576748
 10
95.7774424081
 20
196.4319456815
 10
96.1414401372
 20
196.4684342199
 10
96.8438388555
 20
196.5060404012
 10
97.8502905876
 20
196.5428748471
 10
99.5180038754
 20
196.5876321453
 10
101.5809981737
 20
196.6348903268
 10
103.9227655455
 20
196.683385004
 10
106.3526194851
 20
196.7292342171
 10
108.7822632059
 20
196.7750102063
 10
111.1271022856
 20
196.8234921871
 10
113.1960342612
 20
196.8708019028
 10
114.8702354079
 20
196.9155423329
 10
116.1252702308
 20
196.9634207386
 10
116.8517670694
 20
197.0116467117
 10
116.9752689126
 20
197.0469480504
  0
LWPOLYLINE
  5
159
330
1F
100
AcDbEntity
  8
0
  6
Continuous
 62
     7
370
    25
100
AcDbPolyline
 90
       16
 70
   128
 43
0.0
 10
95.7660299019
 20
197.686462752
 10
95.7774424081
 20
197.7019456815
 10
96.1414401372
 20
197.7384342199
 10
96.8438388555
 20
197.7760404012
 10
97.8502905876
 20
197.8128748471
 10
99.5180038754
 20
197.8576321453
 10
101.5809981737
 20
197.9048903268
 10
103.9227655455
 20
197.953385004
 10
106.3526194851
 20
197.9992342171
 10
108.7822632059
 20
198.0450102063
 10
111.1271022856
 20
198.0934921871
 10
113.1960342612
 20
198.1408019028
 10
114.8702354079
 20
198.1855423329
 10
116.1252702308
 20
198.2334207386
 10
116.8517670694
 20
198.2816467117
 10
116.9752689126
 20
198.3169480504
  0
LWPOLYLINE
  5
15A
330
1F
100
AcDbEntity
  8
0
  6
Continuous
 62
     7
370
    25
100
AcDbPolyline
 90
       16
 70
   128
 43
0.0
 10
95.7660336441
 20
198.956467829
 10
95.7774424081
 20
198.9719456815
 10
96.1414401372
 20
199.0084342199
 10
96.8438388555
 20
199.0460404012
 10
97.8502905876
 20
199.0828748471
 10
99.5180038754
 20
199.1276321453
 10
101.5809981737
 20
199.1748903268
 10
103.9227655455
 20
199.223385004
 10
106.3526194851
 20
199.2692342171
 10
108.7822632059
 20
199.3150102063
 10
111.1271022856
 20
199.3634921871
 10
113.1960342612
 20
199.4108019028
 10
114.8702354079
 20
199.4555423329
 10
116.1252702308
 20
199.5034207386
 10
116.8517670694
 20
199.5516467117
 10
116.9752689126
 20
199.5869480504
  0
LWPOLYLINE
  5
15B
330
1F
100
AcDbEntity
  8
0
  6
Continuous
 62
     7
370
    25
100
AcDbPolyline
 90
       16
 70
   128
 43
0.0
 10
95.7660373862
 20
200.2264729058
 10
95.7774424081
 20
200.2419456815
 10
96.1414401372
 20
200.2784342199
 10
96.8438388555
 20
200.3160404012
 10
97.8502905876
 20
200.3528748471
 10
99.5180038754
 20
200.3976321453
 10
101.5809981737
 20
200.4448903268
 10
103.9227655455
 20
200.493385004
 10
106.3526194851
 20
200.5392342171
 10
108.7822632059
 20
200.5850102063
 10
111.1271022856
 20
200.6334921871
 10
113.1960342612
 20
200.6808019028
 10
114.8702354079
 20
200.7255423329
 10
116.1252702308
 20
200.7734207386
 10
116.8517670694
 20
200.8216467117
 10
116.9752689126
 20
200.8569480504
  0
LWPOLYLINE
  5
15C
330
1F
100
AcDbEntity
  8
0
  6
Continuous
 62
     7
370
    25
100
AcDbPolyline
 90
       16
 70
   128
 43
0.0
 10
95.7660411282
 20
201.4964779824
 10
95.7774424081
 20
201.5119456815
 10
96.1414401372
 20
201.5484342199
 10
96.8438388555
 20
201.5860404012
 10
97.8502905876
 20
201.6228748471
 10
99.5180038754
 20
201.6676321453
 10
101.5809981737
 20
201.7148903268
 10
103.9227655455
 20
201.763385004
 10
106.3526194851
 20
201.8092342171
 10
108.7822632059
 20
201.8550102063
 10
111.1271022856
 20
201.9034921871
 10
113.1960342612
 20
201.9508019028
 10
114.8702354079
 20
201.9955423329
 10
116.1252702308
 20
202.0434207386
 10
116.8517670694
 20
202.0916467117
 10
116.9752689126
 20
202.1269480504
  0
ARC
  5
15D
330
1F
100
AcDbEntity
  8
0
  6
Continuous
 62
     7
370
    25
100
AcDbCircle
 10
111.8202572474
 20
-133.0095198426
 30
0.0
 40
336.1595779677375
100
AcDbArc
 50
90.3621911768
 51
92.7373565815
  0
LINE
  5
15E
330
1F
100
AcDbEntity
  8
0
  6
Continuous
 62
     7
370
    25
100
AcDbLine
 10
98.4003603322
 20
180.4297498455
 30
0.0
 11
97.8503028291
 21
180.0328748476
 31
0.0
  0
LWPOLYLINE
  5
15F
330
1F
100
AcDbEntity
  8
0
  6
Continuous
 62
     7
370
    25
100
AcDbPolyline
 90
       15
 70
   128
 43
0.0
 10
116.3037034787
 20
202.5238441925
 10
116.1352745483
 20
202.4841901436
 10
115.3951094711
 20
202.435222891
 10
114.1571866901
 20
202.387031559
 10
112.5254370034
 20
202.3417650271
 10
110.5212727837
 20
202.2934778889
 10
108.2767334176
 20
202.2445580665
 10
105.9772013752
 20
202.1988011222
 10
103.6768493309
 20
202.1516561052
 10
101.4951752316
 20
202.1024903995
 10
99.6116361384
 20
202.0553483534
 10
98.1542580223
 20
202.0111858469
 10
97.0897800523
 20
201.9639614419
 10
96.5115036131
 20
201.9170768013
 10
96.4745928111
 20
201.8938585385
  0
LWPOLYLINE
  5
160
330
1F
100
AcDbEntity
  8
0
  6
Continuous
 62
     7
370
    25
100
AcDbPolyline
 90
       15
 70
   128
 43
0.0
 10
116.3036468439
 20
201.2538308587
 10
116.1352745483
 20
201.2141901436
 10
115.3951094711
 20
201.165222891
 10
114.1571866901
 20
201.117031559
 10
112.5254370034
 20
201.0717650271
 10
110.5212727837
 20
201.0234778889
 10
108.2767334176
 20
200.9745580665
 10
105.9772013752
 20
200.9288011222
 10
103.6768493309
 20
200.8816561052
 10
101.4951752316
 20
200.8324903995
 10
99.6116361384
 20
200.7853483534
 10
98.1542580223
 20
200.7411858469
 10
97.0897800523
 20
200.6939614419
 10
96.5115036131
 20
200.6470768013
 10
96.4745905129
 20
200.6238570928
  0
LWPOLYLINE
  5
161
330
1F
100
AcDbEntity
  8
0
  6
Continuous
 62
     7
370
    25
100
AcDbPolyline
 90
       15
 70
   128
 43
0.0
 10
116.3035902843
 20
199.9838175426
 10
116.1352745483
 20
199.9441901436
 10
115.3951094711
 20
199.895222891
 10
114.1571866901
 20
199.847031559
 10
112.5254370034
 20
199.8017650271
 10
110.5212727837
 20
199.7534778889
 10
108.2767334176
 20
199.7045580665
 10
105.9772013752
 20
199.6588011222
 10
103.6768493309
 20
199.6116561052
 10
101.4951752316
 20
199.5624903995
 10
99.6116361384
 20
199.5153483534
 10
98.1542580223
 20
199.4711858469
 10
97.0897800523
 20
199.4239614419
 10
96.5115036131
 20
199.3770768013
 10
96.4745882145
 20
199.353855647
  0
LWPOLYLINE
  5
162
330
1F
100
AcDbEntity
  8
0
  6
Continuous
 62
     7
370
    25
100
AcDbPolyline
 90
       15
 70
   128
 43
0.0
 10
116.3035337998
 20
198.7138042442
 10
116.1352745483
 20
198.6741901436
 10
115.3951094711
 20
198.625222891
 10
114.1571866901
 20
198.577031559
 10
112.5254370034
 20
198.5317650271
 10
110.5212727837
 20
198.4834778889
 10
108.2767334176
 20
198.4345580665
 10
105.9772013752
 20
198.3888011222
 10
103.6768493309
 20
198.3416561052
 10
101.4951752316
 20
198.2924903995
 10
99.6116361384
 20
198.2453483534
 10
98.1542580223
 20
198.2011858469
 10
97.0897800523
 20
198.1539614419
 10
96.5115036131
 20
198.1070768013
 10
96.4745859158
 20
198.0838542011
  0
LWPOLYLINE
  5
163
330
1F
100
AcDbEntity
  8
0
  6
Continuous
 62
     7
370
    25
100
AcDbPolyline
 90
       15
 70
   128
 43
0.0
 10
116.3034773903
 20
197.4437909634
 10
116.1352745483
 20
197.4041901436
 10
115.3951094711
 20
197.355222891
 10
114.1571866901
 20
197.307031559
 10
112.5254370034
 20
197.2617650271
 10
110.5212727837
 20
197.2134778889
 10
108.2767334176
 20
197.1645580665
 10
105.9772013752
 20
197.1188011222
 10
103.6768493309
 20
197.0716561052
 10
101.4951752316
 20
197.0224903995
 10
99.6116361384
 20
196.9753483534
 10
98.1542580223
 20
196.9311858469
 10
97.0897800523
 20
196.8839614419
 10
96.5115036131
 20
196.8370768013
 10
96.4745836168
 20
196.813852755
  0
LWPOLYLINE
  5
164
330
1F
100
AcDbEntity
  8
0
  6
Continuous
 62
     7
370
    25
100
AcDbPolyline
 90
       15
 70
   128
 43
0.0
 10
116.3034210558
 20
196.1737777003
 10
116.1352745483
 20
196.1341901436
 10
115.3951094711
 20
196.085222891
 10
114.1571866901
 20
196.037031559
 10
112.5254370034
 20
195.9917650271
 10
110.5212727837
 20
195.9434778889
 10
108.2767334176
 20
195.8945580665
 10
105.9772013752
 20
195.8488011222
 10
103.6768493309
 20
195.8016561052
 10
101.4951752316
 20
195.7524903995
 10
99.6116361384
 20
195.7053483534
 10
98.1542580223
 20
195.6611858469
 10
97.0897800523
 20
195.6139614419
 10
96.5115036131
 20
195.5670768013
 10
96.4745813175
 20
195.5438513086
  0
LWPOLYLINE
  5
165
330
1F
100
AcDbEntity
  8
0
  6
Continuous
 62
     7
370
    25
100
AcDbPolyline
 90
       15
 70
   128
 43
0.0
 10
116.3033647962
 20
194.9037644548
 10
116.1352745483
 20
194.8641901436
 10
115.3951094711
 20
194.815222891
 10
114.1571866901
 20
194.767031559
 10
112.5254370034
 20
194.7217650271
 10
110.5212727837
 20
194.6734778889
 10
108.2767334176
 20
194.6245580665
 10
105.9772013752
 20
194.5788011222
 10
103.6768493309
 20
194.5316561052
 10
101.4951752316
 20
194.4824903995
 10
99.6116361384
 20
194.4353483534
 10
98.1542580223
 20
194.3911858469
 10
97.0897800523
 20
194.3439614419
 10
96.5115036131
 20
194.2970768013
 10
96.474579018
 20
194.2738498621
  0
LWPOLYLINE
  5
166
330
1F
100
AcDbEntity
  8
0
  6
Continuous
 62
     7
370
    25
100
AcDbPolyline
 90
       15
 70
   128
 43
0.0
 10
116.3033086113
 20
193.6337512269
 10
116.1352745483
 20
193.5941901436
 10
115.3951094711
 20
193.545222891
 10
114.1571866901
 20
193.497031559
 10
112.5254370034
 20
193.4517650271
 10
110.5212727837
 20
193.4034778889
 10
108.2767334176
 20
193.3545580665
 10
105.9772013752
 20
193.3088011222
 10
103.6768493309
 20
193.2616561052
 10
101.4951752316
 20
193.2124903995
 10
99.6116361384
 20
193.1653483534
 10
98.1542580223
 20
193.1211858469
 10
97.0897800523
 20
193.0739614419
 10
96.5115036131
 20
193.0270768013
 10
96.4745767181
 20
193.0038484154
  0
LWPOLYLINE
  5
167
330
1F
100
AcDbEntity
  8
0
  6
Continuous
 62
     7
370
    25
100
AcDbPolyline
 90
       15
 70
   128
 43
0.0
 10
116.3032525011
 20
192.3637380166
 10
116.1352745483
 20
192.3241901436
 10
115.3951094711
 20
192.275222891
 10
114.1571866901
 20
192.227031559
 10
112.5254370034
 20
192.1817650271
 10
110.5212727837
 20
192.1334778889
 10
108.2767334176
 20
192.0845580665
 10
105.9772013752
 20
192.0388011222
 10
103.6768493309
 20
191.9916561052
 10
101.4951752316
 20
191.9424903995
 10
99.6116361384
 20
191.8953483534
 10
98.1542580223
 20
191.8511858469
 10
97.0897800523
 20
191.8039614419
 10
96.5115036131
 20
191.7570768013
 10
96.4745744178
 20
191.7338469684
  0
LWPOLYLINE
  5
168
330
1F
100
AcDbEntity
  8
0
  6
Continuous
 62
     7
370
    25
100
AcDbPolyline
 90
       15
 70
   128
 43
0.0
 10
116.3031964654
 20
191.0937248239
 10
116.1352745483
 20
191.0541901436
 10
115.3951094711
 20
191.005222891
 10
114.1571866901
 20
190.957031559
 10
112.5254370034
 20
190.9117650271
 10
110.5212727837
 20
190.8634778889
 10
108.2767334176
 20
190.8145580665
 10
105.9772013752
 20
190.7688011222
 10
103.6768493309
 20
190.7216561052
 10
101.4951752316
 20
190.6724903995
 10
99.6116361384
 20
190.6253483534
 10
98.1542580223
 20
190.5811858469
 10
97.0897800523
 20
190.5339614419
 10
96.5115036131
 20
190.4870768013
 10
96.4745721172
 20
190.4638455213
  0
LWPOLYLINE
  5
169
330
1F
100
AcDbEntity
  8
0
  6
Continuous
 62
     7
370
    25
100
AcDbPolyline
 90
       15
 70
   128
 43
0.0
 10
116.3031405041
 20
189.8237116486
 10
116.1352745483
 20
189.7841901436
 10
115.3951094711
 20
189.735222891
 10
114.1571866901
 20
189.687031559
 10
112.5254370034
 20
189.6417650271
 10
110.5212727837
 20
189.5934778889
 10
108.2767334176
 20
189.5445580665
 10
105.9772013752
 20
189.4988011222
 10
103.6768493309
 20
189.4516561052
 10
101.4951752316
 20
189.4024903995
 10
99.6116361384
 20
189.3553483534
 10
98.1542580223
 20
189.3111858469
 10
97.0897800523
 20
189.2639614419
 10
96.5115036131
 20
189.2170768013
 10
96.4745698162
 20
189.1938440739
  0
LWPOLYLINE
  5
16A
330
1F
100
AcDbEntity
  8
0
  6
Continuous
 62
     7
370
    25
100
AcDbPolyline
 90
       15
 70
   128
 43
0.0
 10
116.3030846172
 20
188.5536984909
 10
116.1352745483
 20
188.5141901436
 10
115.3951094711
 20
188.465222891
 10
114.1571866901
 20
188.417031559
 10
112.5254370034
 20
188.3717650271
 10
110.5212727837
 20
188.3234778889
 10
108.2767334176
 20
188.2745580665
 10
105.9772013752
 20
188.2288011222
 10
103.6768493309
 20
188.1816561052
 10
101.4951752316
 20
188.1324903995
 10
99.6116361384
 20
188.0853483534
 10
98.1542580223
 20
188.0411858469
 10
97.0897800523
 20
187.9939614419
 10
96.5115036131
 20
187.9470768013
 10
96.4745675148
 20
187.9238426262
  0
LWPOLYLINE
  5
16B
330
1F
100
AcDbEntity
  8
0
  6
Continuous
 62
     7
370
    25
100
AcDbPolyline
 90
       15
 70
   128
 43
0.0
 10
116.3030288044
 20
187.2836853506
 10
116.1352745483
 20
187.2441901436
 10
115.3951094711
 20
187.195222891
 10
114.1571866901
 20
187.147031559
 10
112.5254370034
 20
187.1017650271
 10
110.5212727837
 20
187.0534778889
 10
108.2767334176
 20
187.0045580665
 10
105.9772013752
 20
186.9588011222
 10
103.6768493309
 20
186.9116561052
 10
101.4951752316
 20
186.8624903995
 10
99.6116361384
 20
186.8153483534
 10
98.1542580223
 20
186.7711858469
 10
97.0897800523
 20
186.7239614419
 10
96.5115036131
 20
186.6770768013
 10
96.474565213
 20
186.6538411783
  0
LWPOLYLINE
  5
16C
330
1F
100
AcDbEntity
  8
0
  6
Continuous
 62
     7
370
    25
100
AcDbPolyline
 90
       15
 70
   128
 43
0.0
 10
116.3029730656
 20
186.0136722277
 10
116.1352745483
 20
185.9741901436
 10
115.3951094711
 20
185.925222891
 10
114.1571866901
 20
185.877031559
 10
112.5254370034
 20
185.8317650271
 10
110.5212727837
 20
185.7834778889
 10
108.2767334176
 20
185.7345580665
 10
105.9772013752
 20
185.6888011222
 10
103.6768493309
 20
185.6416561052
 10
101.4951752316
 20
185.5924903995
 10
99.6116361384
 20
185.5453483534
 10
98.1542580223
 20
185.5011858469
 10
97.0897800523
 20
185.4539614419
 10
96.5115036131
 20
185.4070768013
 10
96.4745629107
 20
185.3838397301
  0
LWPOLYLINE
  5
16D
330
1F
100
AcDbEntity
  8
0
  6
Continuous
 62
     7
370
    25
100
AcDbPolyline
 90
       15
 70
   128
 43
0.0
 10
116.3029174007
 20
184.7436591223
 10
116.1352745483
 20
184.7041901436
 10
115.3951094711
 20
184.655222891
 10
114.1571866901
 20
184.607031559
 10
112.5254370034
 20
184.5617650271
 10
110.5212727837
 20
184.5134778889
 10
108.2767334176
 20
184.4645580665
 10
105.9772013752
 20
184.4188011222
 10
103.6768493309
 20
184.3716561052
 10
101.4951752316
 20
184.3224903995
 10
99.6116361384
 20
184.2753483534
 10
98.1542580223
 20
184.2311858469
 10
97.0897800523
 20
184.1839614419
 10
96.5115036131
 20
184.1370768013
 10
96.474560608
 20
184.1138382816
  0
LWPOLYLINE
  5
16E
330
1F
100
AcDbEntity
  8
0
  6
Continuous
 62
     7
370
    25
100
AcDbPolyline
 90
       15
 70
   128
 43
0.0
 10
116.3028618096
 20
183.4736460342
 10
116.1352745483
 20
183.4341901436
 10
115.3951094711
 20
183.385222891
 10
114.1571866901
 20
183.337031559
 10
112.5254370034
 20
183.2917650271
 10
110.5212727837
 20
183.2434778889
 10
108.2767334176
 20
183.1945580665
 10
105.9772013752
 20
183.1488011222
 10
103.6768493309
 20
183.1016561052
 10
101.4951752316
 20
183.0524903995
 10
99.6116361384
 20
183.0053483534
 10
98.1542580223
 20
182.9611858469
 10
97.0897800523
 20
182.9139614419
 10
96.5115036131
 20
182.8670768013
 10
96.4745583049
 20
182.8438368328
  0
LWPOLYLINE
  5
16F
330
1F
100
AcDbEntity
  8
0
  6
Continuous
 62
     7
370
    25
100
AcDbPolyline
 90
       15
 70
   128
 43
0.0
 10
116.302806292
 20
182.2036329634
 10
116.1352745483
 20
182.1641901436
 10
115.3951094711
 20
182.115222891
 10
114.1571866901
 20
182.067031559
 10
112.5254370034
 20
182.0217650271
 10
110.5212727837
 20
181.9734778889
 10
108.2767334176
 20
181.9245580665
 10
105.9772013752
 20
181.8788011222
 10
103.6768493309
 20
181.8316561052
 10
101.4951752316
 20
181.7824903995
 10
99.6116361384
 20
181.7353483534
 10
98.1542580223
 20
181.6911858469
 10
97.0897800523
 20
181.6439614419
 10
96.5115036131
 20
181.5970768013
 10
96.4745560012
 20
181.5738353837
  0
LWPOLYLINE
  5
170
330
1F
100
AcDbEntity
  8
0
  6
Continuous
 62
     7
370
    25
100
AcDbPolyline
 90
       12
 70
   128
 43
0.0
 10
116.3027508479
 20
180.9336199099
 10
116.1352745483
 20
180.8941901436
 10
115.3951094711
 20
180.845222891
 10
114.1571866901
 20
180.797031559
 10
112.5254370034
 20
180.7517650271
 10
110.5212727837
 20
180.7034778889
 10
108.2767334176
 20
180.6545580665
 10
105.9772013752
 20
180.6088011222
 10
103.6768493309
 20
180.5616561052
 10
101.4951752316
 20
180.5124903995
 10
99.6116361384
 20
180.4653483534
 10
98.4003576564
 20
180.4297498454
  0
LINE
  5
171
330
1F
100
AcDbEntity
  8
0
  6
Continuous
 62
     7
370
    25
100
AcDbLine
 10
109.6952626443
 20
203.143341602
 30
0.0
 11
96.3925612199
 21
203.143341602
 31
0.0
  0
ARC
  5
172
330
1F
100
AcDbEntity
  8
0
  6
Continuous
 62
     7
370
    25
100
AcDbCircle
 10
109.5693154483
 20
188.6004263763
 30
0.0
 40
101.4599563106054
100
AcDbArc
 50
269.5689293301
 51
274.2126919166
  0
LWPOLYLINE
  5
173
330
1F
100
AcDbEntity
  8
0
  6
Continuous
 62
     7
370
    25
100
AcDbPolyline
 90
        7
 70
   128
 43
0.0
 10
95.7625981818
 20
88.0494672712
 10
95.7338654508
 20
88.0585372345
 10
96.0758245951
 20
88.1011770779
 10
96.8938919386
 20
88.145694243
 10
98.1364223054
 20
88.189073953
 10
99.7177247862
 20
88.229947016
 10
100.7462329765
 20
88.2538768616
  0
LWPOLYLINE
  5
174
330
1F
100
AcDbEntity
  8
0
  6
Continuous
 62
     7
370
    25
100
AcDbPolyline
 90
        7
 70
   128
 43
0.0
 10
96.4478834015
 20
87.6524345582
 10
96.4205378579
 20
87.6616622363
 10
96.7404251397
 20
87.7043020796
 10
97.5056900646
 20
87.7488192447
 10
98.6680209108
 20
87.7921989548
 10
100.1472577165
 20
87.8330720177
 10
100.7462233638
 20
87.8479694461
  0
LINE
  5
175
330
1F
100
AcDbEntity
  8
0
  6
Continuous
 62
     7
370
    25
100
AcDbLine
 10
97.8503028289
 20
180.0328749868
 30
0.0
 11
97.8502893229
 21
181.1441251222
 31
0.0
  0
LINE
  5
176
330
1F
100
AcDbEntity
  8
0
  6
Continuous
 62
     7
370
    25
100
AcDbLine
 10
100.7462168743
 20
88.2538768614
 30
0.0
 11
100.7462346405
 21
87.1426269027
 31
0.0
  0
LINE
  5
177
330
1F
100
AcDbEntity
  8
0
  6
Continuous
 62
     7
370
    25
100
AcDbLine
 10
109.6952626443
 20
203.143341602
 30
0.0
 11
115.8768143286
 21
203.143341602
 31
0.0
  0
LINE
  5
178
330
1F
100
AcDbEntity
  8
0
  6
Continuous
 62
     7
370
    25
100
AcDbLine
 10
98.4003564733
 20
180.7472498056
 30
0.0
 11
98.4003603322
 21
180.4297498057
 31
0.0
  0
LINE
  5
179
330
1F
100
AcDbEntity
  8
0
  6
Continuous
 62
     7
370
    25
100
AcDbLine
 10
90.335066505
 20
58.8205422279
 30
0.0
 11
90.335066505
 21
63.588841602
 31
0.0
  0
LINE
  5
17A
330
1F
100
AcDbEntity
  8
0
  6
Continuous
 62
     7
370
    25
100
AcDbLine
 10
90.335066505
 20
58.697841602
 30
0.0
 11
90.335066505
 21
58.8205422279
 31
0.0
  0
LINE
  5
17B
330
1F
100
AcDbEntity
  8
0
  6
Continuous
 62
     7
370
    25
100
AcDbLine
 10
90.6552072292
 20
58.2938637356
 30
0.0
 11
90.6552072292
 21
64.143341602
 31
0.0
  0
LINE
  5
17C
330
1F
100
AcDbEntity
  8
0
  6
Continuous
 62
     7
370
    25
100
AcDbLine
 10
90.6552072292
 20
58.143341602
 30
0.0
 11
90.6552072292
 21
58.2938637356
 31
0.0
  0
LINE
  5
17D
330
1F
100
AcDbEntity
  8
0
  6
Continuous
 62
     7
370
    25
100
AcDbLine
 10
106.3724741662
 20
86.143341602
 30
0.0
 11
91.3724741662
 21
86.143341602
 31
0.0
  0
LINE
  5
17E
330
1F
100
AcDbEntity
  8
0
  6
Continuous
 62
     7
370
    25
100
AcDbLine
 10
121.3724741662
 20
86.143341602
 30
0.0
 11
106.3724741662
 21
86.143341602
 31
0.0
  0
LINE
  5
17F
330
1F
100
AcDbEntity
  8
0
  6
Continuous
 62
     7
370
    25
100
AcDbLine
 10
106.3724741662
 20
87.143341602
 30
0.0
 11
120.3724741662
 21
87.143341602
 31
0.0
  0
LINE
  5
180
330
1F
100
AcDbEntity
  8
0
  6
Continuous
 62
     7
370
    25
100
AcDbLine
 10
92.3724741662
 20
87.143341602
 30
0.0
 11
106.3724741662
 21
87.143341602
 31
0.0
  0
LINE
  5
181
330
1F
100
AcDbEntity
  8
0
  6
Continuous
 62
     7
370
    25
100
AcDbLine
 10
106.3724741662
 20
54.143341602
 30
0.0
 11
121.3724741662
 21
54.143341602
 31
0.0
  0
LINE
  5
182
330
1F
100
AcDbEntity
  8
0
  6
Continuous
 62
     7
370
    25
100
AcDbLine
 10
91.3724741662
 20
54.143341602
 30
0.0
 11
106.3724741662
 21
54.143341602
 31
0.0
  0
LWPOLYLINE
  5
183
330
1F
100
AcDbEntity
  8
0
  6
Continuous
 62
     7
370
    25
100
AcDbPolyline
 90
       13
 70
   128
 43
0.0
 10
91.3725946435
 20
63.9811935101
 10
91.372474513
 20
63.9818153477
 10
91.4145070011
 20
63.764216786
 10
91.5156635566
 20
63.1492594675
 10
91.6174323634
 20
62.2299362375
 10
91.6488941588
 20
61.6962647778
 10
91.6599030594
 20
61.1414329943
 10
91.6487735039
 20
60.5873956253
 10
91.6171669139
 20
60.0533516505
 10
91.5152977543
 20
59.1348693465
 10
91.4142760091
 20
58.5212229838
 10
91.3724741662
 20
58.3048661276
 10
91.3724741662
 20
58.3048661276
  0
LINE
  5
184
330
1F
100
AcDbEntity
  8
0
  6
Continuous
 62
     7
370
    25
100
AcDbLine
 10
106.3724741662
 20
53.143341602
 30
0.0
 11
92.3724741662
 21
53.143341602
 31
0.0
  0
LINE
  5
185
330
1F
100
AcDbEntity
  8
0
  6
Continuous
 62
     7
370
    25
100
AcDbLine
 10
120.3724741662
 20
53.143341602
 30
0.0
 11
106.3724741662
 21
53.143341602
 31
0.0
  0
LINE
  5
186
330
1F
100
AcDbEntity
  8
0
  6
Continuous
 62
     7
370
    25
100
AcDbLine
 10
90.6552072292
 20
229.1893691364
 30
0.0
 11
91.6755357095
 21
229.1893691364
 31
0.0
  0
LINE
  5
187
330
1F
100
AcDbEntity
  8
0
  6
Continuous
 62
     7
370
    25
100
AcDbLine
 10
91.6755357095
 20
235.1893691364
 30
0.0
 11
90.6552072292
 21
235.1893691364
 31
0.0
  0
LINE
  5
188
330
1F
100
AcDbEntity
  8
0
  6
Continuous
 62
     7
370
    25
100
AcDbLine
 10
90.6552072292
 20
235.1893691364
 30
0.0
 11
90.335066505
 21
234.6348691364
 31
0.0
  0
LINE
  5
189
330
1F
100
AcDbEntity
  8
0
  6
Continuous
 62
     7
370
    25
100
AcDbLine
 10
90.335066505
 20
229.7438691364
 30
0.0
 11
90.6552072292
 21
229.1893691364
 31
0.0
  0
LINE
  5
18A
330
1F
100
AcDbEntity
  8
0
  6
Continuous
 62
     7
370
    25
100
AcDbLine
 10
90.6552072292
 20
233.1277059039
 30
0.0
 11
90.6552072292
 21
235.1893691364
 31
0.0
  0
LINE
  5
18B
330
1F
100
AcDbEntity
  8
0
  6
Continuous
 62
     7
370
    25
100
AcDbLine
 10
90.6552072292
 20
229.1893691364
 30
0.0
 11
90.6552072292
 21
233.1277059039
 31
0.0
  0
LINE
  5
18C
330
1F
100
AcDbEntity
  8
0
  6
Continuous
 62
     7
370
    25
100
AcDbLine
 10
90.335066505
 20
232.9542699914
 30
0.0
 11
90.335066505
 21
234.6348691364
 31
0.0
  0
LINE
  5
18D
330
1F
100
AcDbEntity
  8
0
  6
Continuous
 62
     7
370
    25
100
AcDbLine
 10
90.335066505
 20
229.7438691364
 30
0.0
 11
90.335066505
 21
232.9542699914
 31
0.0
  0
CIRCLE
  5
18E
330
1F
100
AcDbEntity
  8
0
  6
Continuous
 62
     7
370
    25
100
AcDbCircle
 10
106.3724741662
 20
232.1893691364
 30
0.0
 40
7.649999999999991
  0
ARC
  5
18F
330
1F
100
AcDbEntity
  8
0
  6
Continuous
 62
     7
370
    25
100
AcDbCircle
 10
106.2871370548
 20
232.7039190901
 30
0.0
 40
9.667476424861583
100
AcDbArc
 50
330.6856386446
 51
53.5114594302
  0
ARC
  5
190
330
1F
100
AcDbEntity
  8
0
  6
Continuous
 62
     7
370
    25
100
AcDbCircle
 10
106.3724741662
 20
232.1893691364
 30
0.0
 40
9.349999999999985
100
AcDbArc
 50
333.1797359459
 51
63.1797369068
  0
LWPOLYLINE
  5
191
330
1F
100
AcDbEntity
  8
0
  6
Continuous
 62
     7
370
    25
100
AcDbPolyline
 90
       72
 70
   128
 43
0.0
 10
116.2369750338
 20
234.0444096186
 10
116.2369923839
 20
234.0443103642
 10
116.2372698497
 20
234.0427222705
 10
116.2394804178
 20
234.0300159204
 10
116.2438526967
 20
234.004594751
 10
116.2764845321
 20
233.8008248461
 10
116.3291901476
 20
233.3914053654
 10
116.3840552598
 20
232.5671085761
 10
116.3860822567
 20
232.1547403351
 10
116.33875917
 20
231.3279853128
 10
116.2207892428
 20
230.4963532462
 10
116.0299680145
 20
229.6658880529
 10
115.907499927
 20
229.2556685136
 10
115.7737877728
 20
228.8680612135
 10
115.4576318799
 20
228.1078027566
 10
115.0739845053
 20
227.3660965354
 10
114.6227770553
 20
226.6492690404
 10
114.3735701565
 20
226.3043486324
 10
114.1208535981
 20
225.9837323465
 10
113.5746868556
 20
225.3723994116
 10
112.971253929
 20
224.8005180957
 10
112.3121705056
 20
224.2743994127
 10
111.9647506699
 20
224.031876419
 10
111.6212625496
 20
223.8130191005
 10
110.9055200252
 20
223.4171900853
 10
110.1485818645
 20
223.0776910301
 10
109.3543282497
 20
222.7995283839
 10
108.9471577037
 20
222.6856322081
 10
107.7540429328
 20
222.45656187
 10
106.9343312925
 20
222.3856210939
 10
106.0998624628
 20
222.3837521425
 10
105.6814367151
 20
222.4096398271
 10
104.4794252964
 20
222.5858136166
 10
103.6820046609
 20
222.7893962541
 10
102.8934689192
 20
223.0638206626
 10
102.5069691865
 20
223.22685408
 10
101.4404998347
 20
223.78527586
 10
100.7611609219
 20
224.2360440402
 10
100.1130195301
 20
224.7495072444
 10
99.8044775669
 20
225.0276426114
 10
98.9813685996
 20
225.9041246277
 10
98.4886699672
 20
226.5527086956
 10
98.0464714001
 20
227.250703138
 10
97.8472836305
 20
227.6149288836
 10
97.3630288774
 20
228.707973563
 10
97.1135332848
 20
229.478325689
 10
96.9272692428
 20
230.2782705194
 10
96.8595374518
 20
230.6853063454
 10
96.7621767731
 20
231.8712398938
 10
96.7795756249
 20
232.6769654205
 10
96.8664315714
 20
233.4898265304
 10
96.9361993151
 20
233.894573752
 10
97.2349049618
 20
235.0436997505
 10
97.5171245264
 20
235.7968469919
 10
97.8670687771
 20
236.533881073
 10
98.066249153
 20
236.8921435265
 10
98.7217186452
 20
237.8701295504
 10
99.2315629274
 20
238.4831312672
 10
99.7990116831
 20
239.0592377054
 10
100.1020086405
 20
239.3298442584
 10
101.0425964045
 20
240.0378603619
 10
101.7263217743
 20
240.4484664582
 10
102.4527957617
 20
240.8046696991
 10
102.8285271047
 20
240.9598213797
 10
103.9399505883
 20
241.3139096063
 10
104.7133985251
 20
241.4746948831
 10
105.9106186601
 20
241.5942825543
 10
107.0778557813
 20
241.5638385726
 10
107.8602011633
 20
241.4611132937
 10
109.0259492873
 20
241.1797422968
 10
109.8207694463
 20
240.8931165751
 10
110.591130421
 20
240.5335551005
  0
ARC
  5
192
330
1F
100
AcDbEntity
  8
0
  6
Continuous
 62
     7
370
    25
100
AcDbCircle
 10
106.3724741662
 20
232.1893691364
 30
0.0
 40
10.03740766124985
100
AcDbArc
 50
10.6502130226
 51
55.6502130226
  0
CIRCLE
  5
193
330
1F
100
AcDbEntity
  8
0
  6
Continuous
 62
     7
370
    25
100
AcDbCircle
 10
106.3724741662
 20
232.1893691364
 30
0.0
 40
10.34999999999999
  0
CIRCLE
  5
194
330
1F
100
AcDbEntity
  8
0
  6
Continuous
 62
     7
370
    25
100
AcDbCircle
 10
106.3724741662
 20
232.1893691364
 30
0.0
 40
14.0
  0
CIRCLE
  5
195
330
1F
100
AcDbEntity
  8
0
  6
Continuous
 62
     7
370
    25
100
AcDbCircle
 10
106.3724741662
 20
232.1893691364
 30
0.0
 40
15.0
  0
ARC
  5
196
330
1F
100
AcDbEntity
  8
0
  6
Continuous
 62
     7
370
    25
100
AcDbCircle
 10
106.3719759613
 20
232.1868965772
 30
0.0
 40
9.349329325436937
100
AcDbArc
 50
66.0025076355
 51
333.194636145
  0
ARC
  5
197
330
1F
100
AcDbEntity
  8
0
  6
Continuous
 62
     7
370
    25
100
AcDbCircle
 10
106.3724741664
 20
232.1893691364
 30
0.0
 40
9.350000000166286
100
AcDbArc
 50
166.4585884026
 51
167.7437917097
  0
LWPOLYLINE
  5
198
330
1F
100
AcDbEntity
  8
0
  6
Continuous
 62
     7
370
    25
100
AcDbPolyline
 90
        3
 70
   128
 43
0.0
 10
97.2645815148
 20
234.303320756
 10
97.362167731
 20
234.6867433462
 10
97.5226853986
 20
235.118093957
  0
LINE
  5
199
330
1F
100
AcDbEntity
  8
0
  6
Continuous
 62
     7
370
    25
100
AcDbLine
 10
97.3804242957
 20
229.6424002812
 30
0.0
 11
97.3614033397
 21
229.6947544248
 31
0.0
  0
LINE
  5
19A
330
1F
100
AcDbEntity
  8
0
  6
Continuous
 62
     7
370
    25
100
AcDbLine
 10
97.362722597
 20
234.6887443904
 30
0.0
 11
97.5247606654
 21
235.1250118574
 31
0.0
  0
LINE
  5
19B
330
1F
100
AcDbEntity
  8
0
  6
Continuous
 62
     7
370
    25
100
AcDbLine
 10
97.3804242957
 20
229.6424002812
 30
0.0
 11
97.294556149
 21
229.950194183
 31
0.0
  0
LINE
  5
19C
330
1F
100
AcDbEntity
  8
0
  6
Continuous
 62
     7
370
    25
100
AcDbLine
 10
97.0797759545
 20
231.239449645
 30
0.0
 11
97.0444021962
 21
231.5493899784
 31
0.0
  0
LWPOLYLINE
  5
19D
330
1F
100
AcDbEntity
  8
0
  6
Continuous
 62
     7
370
    25
100
AcDbPolyline
 90
        3
 70
   128
 43
0.0
 10
97.0380290956
 20
232.7284750854
 10
97.219459625
 20
234.0985115639
 10
97.2237980236
 20
234.1135623734
  0
LINE
  5
19E
330
1F
100
AcDbEntity
  8
0
  6
Continuous
 62
     7
370
    25
100
AcDbLine
 10
90.6552072292
 20
21.0063565496
 30
0.0
 11
91.6755357095
 21
21.0063565496
 31
0.0
  0
LINE
  5
19F
330
1F
100
AcDbEntity
  8
0
  6
Continuous
 62
     7
370
    25
100
AcDbLine
 10
91.6755357095
 20
27.0063565496
 30
0.0
 11
90.6552072292
 21
27.0063565496
 31
0.0
  0
LINE
  5
1A0
330
1F
100
AcDbEntity
  8
0
  6
Continuous
 62
     7
370
    25
100
AcDbLine
 10
90.6552072292
 20
27.0063565496
 30
0.0
 11
90.335066505
 21
26.4518565496
 31
0.0
  0
LINE
  5
1A1
330
1F
100
AcDbEntity
  8
0
  6
Continuous
 62
     7
370
    25
100
AcDbLine
 10
90.335066505
 20
21.5608565496
 30
0.0
 11
90.6552072292
 21
21.0063565496
 31
0.0
  0
LINE
  5
1A2
330
1F
100
AcDbEntity
  8
0
  6
Continuous
 62
     7
370
    25
100
AcDbLine
 10
90.6552072292
 20
21.0063565496
 30
0.0
 11
90.6552072292
 21
27.0063565496
 31
0.0
  0
LINE
  5
1A3
330
1F
100
AcDbEntity
  8
0
  6
Continuous
 62
     7
370
    25
100
AcDbLine
 10
90.335066505
 20
21.5608565496
 30
0.0
 11
90.335066505
 21
26.4518565496
 31
0.0
  0
ARC
  5
1A4
330
1F
100
AcDbEntity
  8
0
  6
Continuous
 62
     7
370
    25
100
AcDbCircle
 10
106.6957308485
 20
23.7498476994
 30
0.0
 40
10.30794147319176
100
AcDbArc
 50
174.1225395615
 51
286.9173740639
  0
ARC
  5
1A5
330
1F
100
AcDbEntity
  8
0
  6
Continuous
 62
     7
370
    25
100
AcDbCircle
 10
106.3400797981
 20
23.9886909653
 30
0.0
 40
10.64338511039684
100
AcDbArc
 50
334.8632180981
 51
288.3750881285
  0
CIRCLE
  5
1A6
330
1F
100
AcDbEntity
  8
0
  6
Continuous
 62
     7
370
    25
100
AcDbCircle
 10
106.3724741662
 20
24.0063565496
 30
0.0
 40
7.649999999999991
  0
ARC
  5
1A7
330
1F
100
AcDbEntity
  8
0
  6
Continuous
 62
     7
370
    25
100
AcDbCircle
 10
106.3724741662
 20
24.0063565496
 30
0.0
 40
10.65
100
AcDbArc
 50
288.1797359459
 51
333.1797369068
  0
ARC
  5
1A8
330
1F
100
AcDbEntity
  8
0
  6
Continuous
 62
     7
370
    25
100
AcDbCircle
 10
106.3724741662
 20
24.0063565496
 30
0.0
 40
9.96259233875001
100
AcDbArc
 50
85.3997243503
 51
175.3997243503
  0
ARC
  5
1A9
330
1F
100
AcDbEntity
  8
0
  6
Continuous
 62
     7
370
    25
100
AcDbCircle
 10
106.5971188743
 20
23.6582886023
 30
0.0
 40
10.29460245713385
100
AcDbArc
 50
334.3445154614
 51
86.8014936112
  0
LINE
  5
1AA
330
1F
100
AcDbEntity
  8
0
  6
Continuous
 62
     7
370
    25
100
AcDbLine
 10
100.232166851
 20
15.3118535284
 30
0.0
 11
100.7462346405
 21
14.9637944791
 31
0.0
  0
CIRCLE
  5
1AB
330
1F
100
AcDbEntity
  8
0
  6
Continuous
 62
     7
370
    25
100
AcDbCircle
 10
106.3724741662
 20
24.0063565496
 30
0.0
 40
15.0
  0
CIRCLE
  5
1AC
330
1F
100
AcDbEntity
  8
0
  6
Continuous
 62
     7
370
    25
100
AcDbCircle
 10
106.3724741662
 20
24.0063565496
 30
0.0
 40
13.99999999999998
  0
ENDSEC
  0
SECTION
  2
OBJECTS
  0
DICTIONARY
  5
C
330
0
100
AcDbDictionary
281
     1
  3
ACAD_DETAILVIEWSTYLE
350
1B4
  3
ACAD_GROUP
350
D
  3
ACAD_LAYOUT
350
1A
  3
ACAD_MATERIAL
350
43
  3
ACAD_MLEADERSTYLE
350
6B
  3
ACAD_MLINESTYLE
350
17
  3
ACAD_PLOTSETTINGS
350
19
  3
ACAD_PLOTSTYLENAME
350
E
  3
ACAD_SCALELIST
350
47
  3
ACAD_SECTIONVIEWSTYLE
350
1B5
  3
ACAD_TABLESTYLE
350
69
  3
ACAD_VISUALSTYLE
350
2A
  3
ACDB_RECOMPOSE_DATA
350
1B1
  3
AcDbVariableDictionary
350
1AD
  0
SUN
  5
6D
330
29
100
AcDbSun
 90
        1
290
     0
 63
     7
421
 16777215
 40
1.0
291
     1
 91
  2455826
 92
 54000000
292
     0
 70
     2
 71
   256
280
     1
  0
DICTIONARY
  5
1B4
102
{ACAD_REACTORS
330
C
102
}
330
C
100
AcDbDictionary
281
     1
  0
DICTIONARY
  5
D
102
{ACAD_REACTORS
330
C
102
}
330
C
100
AcDbDictionary
281
     1
  0
DICTIONARY
  5
1A
102
{ACAD_REACTORS
330
C
102
}
330
C
100
AcDbDictionary
281
     1
  3
Layout1
350
1E
  3
Layout2
350
26
  3
Model
350
22
  0
DICTIONARY
  5
43
102
{ACAD_REACTORS
330
C
102
}
330
C
100
AcDbDictionary
281
     1
  3
ByBlock
350
45
  3
ByLayer
350
44
  3
Global
350
46
  0
DICTIONARY
  5
6B
102
{ACAD_REACTORS
330
C
102
}
330
C
100
AcDbDictionary
281
     1
  3
Standard
350
6C
  0
DICTIONARY
  5
17
102
{ACAD_REACTORS
330
C
102
}
330
C
100
AcDbDictionary
281
     1
  3
Standard
350
18
  0
DICTIONARY
  5
19
102
{ACAD_REACTORS
330
C
102
}
330
C
100
AcDbDictionary
281
     1
  0
ACDBDICTIONARYWDFLT
  5
E
102
{ACAD_REACTORS
330
C
102
}
330
C
100
AcDbDictionary
281
     1
  3
Normal
350
F
100
AcDbDictionaryWithDefault
340
F
  0
DICTIONARY
  5
47
102
{ACAD_REACTORS
330
C
102
}
330
C
100
AcDbDictionary
281
     1
  3
A0
350
48
  3
A1
350
49
  3
A2
350
4A
  3
A3
350
4B
  3
A4
350
4C
  3
A5
350
4D
  3
A6
350
4E
  3
A7
350
4F
  3
A8
350
50
  3
A9
350
51
  3
B0
350
52
  3
B1
350
53
  3
B2
350
54
  3
B3
350
55
  3
B4
350
56
  3
B5
350
57
  3
B6
350
58
  3
B7
350
59
  3
B8
350
5A
  3
B9
350
5B
  3
C0
350
5C
  3
C1
350
5D
  3
C2
350
5E
  3
C3
350
5F
  3
C4
350
60
  3
C5
350
61
  3
C6
350
62
  3
C7
350
63
  3
C8
350
64
  3
C9
350
65
  3
D0
350
66
  3
D1
350
67
  3
D2
350
68
  0
DICTIONARY
  5
1B5
102
{ACAD_REACTORS
330
C
102
}
330
C
100
AcDbDictionary
281
     1
  0
DICTIONARY
  5
69
102
{ACAD_REACTORS
330
C
102
}
330
C
100
AcDbDictionary
281
     1
  3
Standard
350
6A
  0
DICTIONARY
  5
2A
102
{ACAD_REACTORS
330
C
102
}
330
C
100
AcDbDictionary
281
     1
  3
2dWireframe
350
2F
  3
Basic
350
32
  3
Brighten
350
36
  3
ColorChange
350
3A
  3
Conceptual
350
34
  3
Dim
350
35
  3
EdgeColorOff
350
3D
  3
Facepattern
350
39
  3
Flat
350
2B
  3
FlatWithEdges
350
2C
  3
Gouraud
350
2D
  3
GouraudWithEdges
350
2E
  3
Hidden
350
31
  3
JitterOff
350
3B
  3
Linepattern
350
38
  3
OverhangOff
350
3C
  3
Realistic
350
33
  3
Shaded
350
42
  3
Shaded with edges
350
41
  3
Shades of Gray
350
3E
  3
Sketchy
350
3F
  3
Thicken
350
37
  3
Wireframe
350
30
  3
X-Ray
350
40
  0
XRECORD
  5
1B1
102
{ACAD_REACTORS
330
C
102
}
330
C
100
AcDbXrecord
280
     1
 90
        1
330
6A
  0
DICTIONARY
  5
1AD
102
{ACAD_REACTORS
330
C
102
}
330
C
100
AcDbDictionary
281
     1
  3
CANNOSCALE
350
1AE
  3
CENTEREXE
350
1B6
  3
CENTERLTYPEFILE
350
1B7
  3
CMLEADERSTYLE
350
1B3
  3
CTABLESTYLE
350
1B2
  0
LAYOUT
  5
1E
102
{ACAD_REACTORS
330
1A
102
}
330
1A
100
AcDbPlotSettings
  1

  2
none_device
  4

  6

 40
0.0
 41
0.0
 42
0.0
 43
0.0
 44
0.0
 45
0.0
 46
0.0
 47
0.0
 48
0.0
 49
0.0
140
0.0
141
0.0
142
1.0
143
1.0
 70
   688
 72
     1
 73
     0
 74
     5
  7

 75
    16
 76
     0
 77
     2
 78
   300
147
1.0
148
0.0
149
0.0
100
AcDbLayout
  1
Layout1
 70
     1
 71
     1
 10
0.0
 20
0.0
 11
420.0
 21
297.0
 12
0.0
 22
0.0
 32
0.0
 14
1.0000000000E+20
 24
1.0000000000E+20
 34
1.0000000000E+20
 15
-1.0000000000E+20
 25
-1.0000000000E+20
 35
-1.0000000000E+20
146
0.0
 13
0.0
 23
0.0
 33
0.0
 16
1.0
 26
0.0
 36
0.0
 17
0.0
 27
1.0
 37
0.0
 76
     0
330
1B
  0
LAYOUT
  5
26
102
{ACAD_REACTORS
330
1A
102
}
330
1A
100
AcDbPlotSettings
  1

  2
none_device
  4

  6

 40
0.0
 41
0.0
 42
0.0
 43
0.0
 44
0.0
 45
0.0
 46
0.0
 47
0.0
 48
0.0
 49
0.0
140
0.0
141
0.0
142
1.0
143
1.0
 70
   688
 72
     1
 73
     0
 74
     5
  7

 75
    16
 76
     0
 77
     2
 78
   300
147
1.0
148
0.0
149
0.0
100
AcDbLayout
  1
Layout2
 70
     1
 71
     2
 10
0.0
 20
0.0
 11
0.0
 21
0.0
 12
0.0
 22
0.0
 32
0.0
 14
0.0
 24
0.0
 34
0.0
 15
0.0
 25
0.0
 35
0.0
146
0.0
 13
0.0
 23
0.0
 33
0.0
 16
1.0
 26
0.0
 36
0.0
 17
0.0
 27
1.0
 37
0.0
 76
     0
330
23
  0
LAYOUT
  5
22
102
{ACAD_REACTORS
330
1A
102
}
330
1A
100
AcDbPlotSettings
  1

  2
none_device
  4
Letter_(8.50_x_11.00_Inches)
  6

 40
6.35
 41
6.35
 42
6.35000508
 43
6.35000508
 44
215.9
 45
279.4
 46
0.0
 47
0.0
 48
0.0
 49
0.0
140
0.0
141
0.0
142
1.0
143
1.0
 70
  1712
 72
     1
 73
     0
 74
     0
  7

 75
     0
 76
     0
 77
     2
 78
   300
147
1.0
148
0.0
149
0.0
100
AcDbLayout
  1
Model
 70
     1
 71
     0
 10
0.0
 20
0.0
 11
210.0
 21
297.0
 12
0.0
 22
0.0
 32
0.0
 14
0.0
 24
0.0
 34
0.0
 15
210.0
 25
297.0
 35
0.0
146
0.0
 13
0.0
 23
0.0
 33
0.0
 16
1.0
 26
0.0
 36
0.0
 17
0.0
 27
1.0
 37
0.0
 76
     0
330
1F
331
29
  0
MATERIAL
  5
45
102
{ACAD_REACTORS
330
43
102
}
330
43
100
AcDbMaterial
  1
ByBlock
 72
     1
 94
      127
  0
MATERIAL
  5
44
102
{ACAD_REACTORS
330
43
102
}
330
43
100
AcDbMaterial
  1
ByLayer
 72
     1
 94
      127
  0
MATERIAL
  5
46
102
{ACAD_REACTORS
330
43
102
}
330
43
100
AcDbMaterial
  1
Global
 72
     1
 94
      127
  0
MLEADERSTYLE
  5
6C
102
{ACAD_REACTORS
330
6B
102
}
330
6B
100
AcDbMLeaderStyle
179
     2
170
     2
171
     1
172
     0
 90
        2
 40
0.0
 41
0.0
173
     1
 91
-1056964608
340
14
 92
       -2
290
     1
 42
2.0
291
     1
 43
8.0
  3
Standard
341
0
 44
4.0
300

342
11
174
     1
178
     6
175
     1
176
     0
 93
-1056964608
 45
4.0
292
     0
297
     0
 46
4.0
343
0
 94
-1056964608
 47
1.0
 49
1.0
140
1.0
293
     1
141
0.0
294
     1
177
     0
142
1.0
295
     0
296
     0
143
3.75
271
     0
272
     9
273
     9
298
     0
  0
MLINESTYLE
  5
18
102
{ACAD_REACTORS
330
17
102
}
330
17
100
AcDbMlineStyle
  2
Standard
 70
     0
  3

 62
   256
 51
90.0
 52
90.0
 71
     2
 49
0.5
 62
   256
  6
BYLAYER
 49
-0.5
 62
   256
  6
BYLAYER
  0
ACDBPLACEHOLDER
  5
F
102
{ACAD_REACTORS
330
E
102
}
330
E
  0
SCALE
  5
48
102
{ACAD_REACTORS
330
47
102
}
330
47
100
AcDbScale
 70
     0
300
1:1
140
1.0
141
1.0
290
     1
  0
SCALE
  5
49
102
{ACAD_REACTORS
330
47
102
}
330
47
100
AcDbScale
 70
     0
300
1:2
140
1.0
141
2.0
290
     0
  0
SCALE
  5
4A
102
{ACAD_REACTORS
330
47
102
}
330
47
100
AcDbScale
 70
     0
300
1:4
140
1.0
141
4.0
290
     0
  0
SCALE
  5
4B
102
{ACAD_REACTORS
330
47
102
}
330
47
100
AcDbScale
 70
     0
300
1:5
140
1.0
141
5.0
290
     0
  0
SCALE
  5
4C
102
{ACAD_REACTORS
330
47
102
}
330
47
100
AcDbScale
 70
     0
300
1:8
140
1.0
141
8.0
290
     0
  0
SCALE
  5
4D
102
{ACAD_REACTORS
330
47
102
}
330
47
100
AcDbScale
 70
     0
300
1:10
140
1.0
141
10.0
290
     0
  0
SCALE
  5
4E
102
{ACAD_REACTORS
330
47
102
}
330
47
100
AcDbScale
 70
     0
300
1:16
140
1.0
141
16.0
290
     0
  0
SCALE
  5
4F
102
{ACAD_REACTORS
330
47
102
}
330
47
100
AcDbScale
 70
     0
300
1:20
140
1.0
141
20.0
290
     0
  0
SCALE
  5
50
102
{ACAD_REACTORS
330
47
102
}
330
47
100
AcDbScale
 70
     0
300
1:30
140
1.0
141
30.0
290
     0
  0
SCALE
  5
51
102
{ACAD_REACTORS
330
47
102
}
330
47
100
AcDbScale
 70
     0
300
1:40
140
1.0
141
40.0
290
     0
  0
SCALE
  5
52
102
{ACAD_REACTORS
330
47
102
}
330
47
100
AcDbScale
 70
     0
300
1:50
140
1.0
141
50.0
290
     0
  0
SCALE
  5
53
102
{ACAD_REACTORS
330
47
102
}
330
47
100
AcDbScale
 70
     0
300
1:100
140
1.0
141
100.0
290
     0
  0
SCALE
  5
54
102
{ACAD_REACTORS
330
47
102
}
330
47
100
AcDbScale
 70
     0
300
2:1
140
2.0
141
1.0
290
     0
  0
SCALE
  5
55
102
{ACAD_REACTORS
330
47
102
}
330
47
100
AcDbScale
 70
     0
300
4:1
140
4.0
141
1.0
290
     0
  0
SCALE
  5
56
102
{ACAD_REACTORS
330
47
102
}
330
47
100
AcDbScale
 70
     0
300
8:1
140
8.0
141
1.0
290
     0
  0
SCALE
  5
57
102
{ACAD_REACTORS
330
47
102
}
330
47
100
AcDbScale
 70
     0
300
10:1
140
10.0
141
1.0
290
     0
  0
SCALE
  5
58
102
{ACAD_REACTORS
330
47
102
}
330
47
100
AcDbScale
 70
     0
300
100:1
140
100.0
141
1.0
290
     0
  0
SCALE
  5
59
102
{ACAD_REACTORS
330
47
102
}
330
47
100
AcDbScale
 70
     0
300
1/128" = 1'-0"
140
0.0078125
141
12.0
290
     0
  0
SCALE
  5
5A
102
{ACAD_REACTORS
330
47
102
}
330
47
100
AcDbScale
 70
     0
300
1/64" = 1'-0"
140
0.015625
141
12.0
290
     0
  0
SCALE
  5
5B
102
{ACAD_REACTORS
330
47
102
}
330
47
100
AcDbScale
 70
     0
300
1/32" = 1'-0"
140
0.03125
141
12.0
290
     0
  0
SCALE
  5
5C
102
{ACAD_REACTORS
330
47
102
}
330
47
100
AcDbScale
 70
     0
300
1/16" = 1'-0"
140
0.0625
141
12.0
290
     0
  0
SCALE
  5
5D
102
{ACAD_REACTORS
330
47
102
}
330
47
100
AcDbScale
 70
     0
300
3/32" = 1'-0"
140
0.09375
141
12.0
290
     0
  0
SCALE
  5
5E
102
{ACAD_REACTORS
330
47
102
}
330
47
100
AcDbScale
 70
     0
300
1/8" = 1'-0"
140
0.125
141
12.0
290
     0
  0
SCALE
  5
5F
102
{ACAD_REACTORS
330
47
102
}
330
47
100
AcDbScale
 70
     0
300
3/16" = 1'-0"
140
0.1875
141
12.0
290
     0
  0
SCALE
  5
60
102
{ACAD_REACTORS
330
47
102
}
330
47
100
AcDbScale
 70
     0
300
1/4" = 1'-0"
140
0.25
141
12.0
290
     0
  0
SCALE
  5
61
102
{ACAD_REACTORS
330
47
102
}
330
47
100
AcDbScale
 70
     0
300
3/8" = 1'-0"
140
0.375
141
12.0
290
     0
  0
SCALE
  5
62
102
{ACAD_REACTORS
330
47
102
}
330
47
100
AcDbScale
 70
     0
300
1/2" = 1'-0"
140
0.5
141
12.0
290
     0
  0
SCALE
  5
63
102
{ACAD_REACTORS
330
47
102
}
330
47
100
AcDbScale
 70
     0
300
3/4" = 1'-0"
140
0.75
141
12.0
290
     0
  0
SCALE
  5
64
102
{ACAD_REACTORS
330
47
102
}
330
47
100
AcDbScale
 70
     0
300
1" = 1'-0"
140
1.0
141
12.0
290
     0
  0
SCALE
  5
65
102
{ACAD_REACTORS
330
47
102
}
330
47
100
AcDbScale
 70
     0
300
1-1/2" = 1'-0"
140
1.5
141
12.0
290
     0
  0
SCALE
  5
66
102
{ACAD_REACTORS
330
47
102
}
330
47
100
AcDbScale
 70
     0
300
3" = 1'-0"
140
3.0
141
12.0
290
     0
  0
SCALE
  5
67
102
{ACAD_REACTORS
330
47
102
}
330
47
100
AcDbScale
 70
     0
300
6" = 1'-0"
140
6.0
141
12.0
290
     0
  0
SCALE
  5
68
102
{ACAD_REACTORS
330
47
102
}
330
47
100
AcDbScale
 70
     0
300
1'-0" = 1'-0"
140
12.0
141
12.0
290
     0
  0
TABLESTYLE
  5
6A
102
{ACAD_REACTORS
330
69
102
}
102
{ACAD_XDICTIONARY
360
1AF
102
}
330
69
100
AcDbTableStyle
  3
Standard
 70
     0
 71
     0
 40
0.06
 41
0.06
280
     0
281
     0
  7
Standard
140
4.5
170
     2
 62
     0
 63
   257
283
     0
 90
        4
 91
        0
  1

274
    -2
284
     1
 64
     0
275
    -2
285
     1
 65
     0
276
    -2
286
     1
 66
     0
277
    -2
287
     1
 67
     0
278
    -2
288
     1
 68
     0
279
    -2
289
     1
 69
     0
  7
Standard
140
6.0
170
     5
 62
     0
 63
   257
283
     0
 90
        4
 91
        0
  1

274
    -2
284
     1
 64
     0
275
    -2
285
     1
 65
     0
276
    -2
286
     1
 66
     0
277
    -2
287
     1
 67
     0
278
    -2
288
     1
 68
     0
279
    -2
289
     1
 69
     0
  7
Standard
140
4.5
170
     5
 62
     0
 63
   257
283
     0
 90
        4
 91
        0
  1

274
    -2
284
     1
 64
     0
275
    -2
285
     1
 65
     0
276
    -2
286
     1
 66
     0
277
    -2
287
     1
 67
     0
278
    -2
288
     1
 68
     0
279
    -2
289
     1
 69
     0
  0
VISUALSTYLE
  5
2F
102
{ACAD_REACTORS
330
2A
102
}
330
2A
100
AcDbVisualStyle
  2
2dWireframe
 70
     4
177
     3
291
     0
 70
    58
 90
        0
176
     1
 90
        2
176
     1
 90
        0
176
     1
 90
        0
176
     1
 40
0.6
176
     1
 40
30.0
176
     1
 62
     7
420
 16777215
176
     1
 90
        1
176
     1
 90
        4
176
     1
 62
     7
176
     1
 62
   257
176
     1
 90
        1
176
     1
 90
        1
176
     1
 40
1.0
176
     1
 90
        0
176
     1
 62
   257
176
     1
 40
1.0
176
     1
 90
        1
176
     1
 90
        6
176
     1
 90
        2
176
     1
 62
     7
176
     1
 90
        5
176
     1
 90
        0
176
     1
 90
        0
176
     1
290
     0
176
     1
 90
        1
176
     1
 40
0.0
176
     1
 90
        0
176
     1
290
     1
176
     1
290
     1
176
     1
290
     0
176
     1
290
     0
176
     1
290
     0
176
     1
290
     0
176
     1
290
     0
176
     1
290
     0
176
     1
290
     0
176
     1
 90
       50
176
     1
 40
0.0
176
     1
 40
1.0
176
     1
 90
        0
176
     1
 62
    18
420
        0
176
     1
 90
       50
176
     1
 90
        3
176
     1
 62
     5
420
      255
176
     1
290
     0
176
     1
 90
       50
176
     1
 90
       50
176
     1
 90
       50
176
     1
290
     0
176
     1
 90
       50
176
     1
 62
   256
176
     0
 40
1.0
176
     0
 90
        2
176
     1
  1
strokes_ogs.tif
176
     1
290
     0
176
     1
 40
1.0
176
     1
 40
1.0
176
     1
  0
VISUALSTYLE
  5
32
102
{ACAD_REACTORS
330
2A
102
}
330
2A
100
AcDbVisualStyle
  2
Basic
 70
     7
177
     3
291
     1
 70
    58
 90
        1
176
     1
 90
        0
176
     1
 90
        1
176
     1
 90
        0
176
     1
 40
0.6
176
     1
 40
30.0
176
     1
 62
     7
420
 16777215
176
     1
 90
        0
176
     1
 90
        4
176
     1
 62
     7
176
     1
 62
   257
176
     1
 90
        1
176
     1
 90
        1
176
     1
 40
1.0
176
     1
 90
        8
176
     1
 62
     7
176
     1
 40
1.0
176
     1
 90
        1
176
     1
 90
        6
176
     1
 90
        2
176
     1
 62
     7
176
     1
 90
        5
176
     1
 90
        0
176
     1
 90
        0
176
     1
290
     0
176
     1
 90
        1
176
     1
 40
0.0
176
     1
 90
        0
176
     1
290
     0
176
     1
290
     1
176
     1
290
     1
176
     1
290
     0
176
     1
290
     0
176
     1
290
     0
176
     1
290
     0
176
     1
290
     0
176
     1
290
     0
176
     1
 90
       50
176
     1
 40
0.0
176
     1
 40
1.0
176
     1
 90
        0
176
     1
 62
    18
420
        0
176
     1
 90
       50
176
     1
 90
        3
176
     1
 62
     5
420
      255
176
     1
290
     0
176
     1
 90
       50
176
     1
 90
       50
176
     1
 90
       50
176
     1
290
     0
176
     1
 90
       50
176
     1
 62
   256
176
     0
 40
1.0
176
     0
 90
        2
176
     1
  1
strokes_ogs.tif
176
     1
290
     0
176
     1
 40
1.0
176
     1
 40
1.0
176
     1
  0
VISUALSTYLE
  5
36
102
{ACAD_REACTORS
330
2A
102
}
330
2A
100
AcDbVisualStyle
  2
Brighten
 70
    12
177
     3
291
     1
 70
    58
 90
        2
176
     1
 90
        2
176
     1
 90
        0
176
     1
 90
        0
176
     1
 40
0.6
176
     1
 40
30.0
176
     1
 62
     7
420
 16777215
176
     1
 90
        1
176
     1
 90
        4
176
     1
 62
     7
176
     1
 62
   257
176
     1
 90
        1
176
     1
 90
        1
176
     1
 40
1.0
176
     1
 90
        8
176
     1
 62
     7
176
     1
 40
1.0
176
     1
 90
        1
176
     1
 90
        6
176
     1
 90
        2
176
     1
 62
     7
176
     1
 90
        5
176
     1
 90
        0
176
     1
 90
        0
176
     1
290
     0
176
     1
 90
        1
176
     1
 40
50.0
176
     1
 90
        0
176
     1
290
     0
176
     1
290
     1
176
     1
290
     1
176
     1
290
     0
176
     1
290
     0
176
     1
290
     0
176
     1
290
     0
176
     1
290
     0
176
     1
290
     0
176
     1
 90
       50
176
     1
 40
0.0
176
     1
 40
1.0
176
     1
 90
        0
176
     1
 62
    18
420
        0
176
     1
 90
       50
176
     1
 90
        3
176
     1
 62
     5
420
      255
176
     1
290
     0
176
     1
 90
       50
176
     1
 90
       50
176
     1
 90
       50
176
     1
290
     0
176
     1
 90
       50
176
     1
 62
   256
176
     0
 40
1.0
176
     0
 90
        2
176
     1
  1
strokes_ogs.tif
176
     1
290
     0
176
     1
 40
1.0
176
     1
 40
1.0
176
     1
  0
VISUALSTYLE
  5
3A
102
{ACAD_REACTORS
330
2A
102
}
330
2A
100
AcDbVisualStyle
  2
ColorChange
 70
    16
177
     3
291
     1
 70
    58
 90
        2
176
     1
 90
        2
176
     1
 90
        3
176
     1
 90
        0
176
     1
 40
0.6
176
     1
 40
30.0
176
     1
 62
     8
420
  8421504
176
     1
 90
        1
176
     1
 90
        4
176
     1
 62
     7
176
     1
 62
   257
176
     1
 90
        1
176
     1
 90
        1
176
     1
 40
1.0
176
     1
 90
        8
176
     1
 62
     8
420
  8421504
176
     1
 40
1.0
176
     1
 90
        1
176
     1
 90
        6
176
     1
 90
        2
176
     1
 62
     7
176
     1
 90
        5
176
     1
 90
        0
176
     1
 90
        0
176
     1
290
     0
176
     1
 90
        1
176
     1
 40
0.0
176
     1
 90
        0
176
     1
290
     0
176
     1
290
     1
176
     1
290
     1
176
     1
290
     0
176
     1
290
     0
176
     1
290
     0
176
     1
290
     0
176
     1
290
     0
176
     1
290
     0
176
     1
 90
       50
176
     1
 40
0.0
176
     1
 40
1.0
176
     1
 90
        0
176
     1
 62
    18
420
        0
176
     1
 90
       50
176
     1
 90
        3
176
     1
 62
     5
420
      255
176
     1
290
     0
176
     1
 90
       50
176
     1
 90
       50
176
     1
 90
       50
176
     1
290
     0
176
     1
 90
       50
176
     1
 62
   256
176
     0
 40
1.0
176
     0
 90
        2
176
     1
  1
strokes_ogs.tif
176
     1
290
     0
176
     1
 40
1.0
176
     1
 40
1.0
176
     1
  0
VISUALSTYLE
  5
34
102
{ACAD_REACTORS
330
2A
102
}
330
2A
100
AcDbVisualStyle
  2
Conceptual
 70
     9
177
     3
291
     0
 70
    58
 90
        3
176
     1
 90
        2
176
     1
 90
        0
176
     1
 90
        0
176
     1
 40
0.6
176
     1
 40
30.0
176
     1
 62
     7
420
 16777215
176
     1
 90
        2
176
     1
 90
        2
176
     1
 62
     7
176
     1
 62
   257
176
     1
 90
        1
176
     1
 90
        1
176
     1
 40
179.0
176
     1
 90
        8
176
     1
 62
     7
176
     1
 40
1.0
176
     1
 90
        1
176
     1
 90
        6
176
     1
 90
        2
176
     1
 62
     7
176
     1
 90
        3
176
     1
 90
        0
176
     1
 90
        0
176
     1
290
     0
176
     1
 90
        1
176
     1
 40
0.0
176
     1
 90
        0
176
     1
290
     0
176
     1
290
     1
176
     1
290
     1
176
     1
290
     0
176
     1
290
     0
176
     1
290
     0
176
     1
290
     0
176
     1
290
     0
176
     1
290
     0
176
     1
 90
       50
176
     1
 40
0.0
176
     1
 40
1.0
176
     1
 90
        0
176
     1
 62
    18
420
        0
176
     1
 90
       50
176
     1
 90
        3
176
     1
 62
     5
420
      255
176
     1
290
     0
176
     1
 90
       50
176
     1
 90
       50
176
     1
 90
       50
176
     1
290
     0
176
     1
 90
       50
176
     1
 62
   256
176
     0
 40
1.0
176
     0
 90
        2
176
     1
  1
strokes_ogs.tif
176
     1
290
     0
176
     1
 40
1.0
176
     1
 40
1.0
176
     1
  0
VISUALSTYLE
  5
35
102
{ACAD_REACTORS
330
2A
102
}
330
2A
100
AcDbVisualStyle
  2
Dim
 70
    11
177
     3
291
     1
 70
    58
 90
        2
176
     1
 90
        2
176
     1
 90
        0
176
     1
 90
        0
176
     1
 40
0.6
176
     1
 40
30.0
176
     1
 62
     7
420
 16777215
176
     1
 90
        1
176
     1
 90
        4
176
     1
 62
     7
176
     1
 62
   257
176
     1
 90
        1
176
     1
 90
        1
176
     1
 40
1.0
176
     1
 90
        8
176
     1
 62
     7
176
     1
 40
1.0
176
     1
 90
        1
176
     1
 90
        6
176
     1
 90
        2
176
     1
 62
     7
176
     1
 90
        5
176
     1
 90
        0
176
     1
 90
        0
176
     1
290
     0
176
     1
 90
        1
176
     1
 40
-50.0
176
     1
 90
        0
176
     1
290
     0
176
     1
290
     1
176
     1
290
     1
176
     1
290
     0
176
     1
290
     0
176
     1
290
     0
176
     1
290
     0
176
     1
290
     0
176
     1
290
     0
176
     1
 90
       50
176
     1
 40
0.0
176
     1
 40
1.0
176
     1
 90
        0
176
     1
 62
    18
420
        0
176
     1
 90
       50
176
     1
 90
        3
176
     1
 62
     5
420
      255
176
     1
290
     0
176
     1
 90
       50
176
     1
 90
       50
176
     1
 90
       50
176
     1
290
     0
176
     1
 90
       50
176
     1
 62
   256
176
     0
 40
1.0
176
     0
 90
        2
176
     1
  1
strokes_ogs.tif
176
     1
290
     0
176
     1
 40
1.0
176
     1
 40
1.0
176
     1
  0
VISUALSTYLE
  5
3D
102
{ACAD_REACTORS
330
2A
102
}
330
2A
100
AcDbVisualStyle
  2
EdgeColorOff
 70
    22
177
     3
291
     1
 70
    58
 90
        2
176
     0
 90
        2
176
     0
 90
        0
176
     0
 90
        0
176
     0
 40
0.6
176
     0
 40
30.0
176
     0
 62
     7
420
 16777215
176
     0
 90
        1
176
     0
 90
        4
176
     0
 62
     7
176
     0
 62
   257
176
     0
 90
        1
176
     0
 90
        1
176
     0
 40
1.0
176
     0
 90
        8
176
     2
 62
     7
176
     0
 40
1.0
176
     0
 90
        1
176
     0
 90
        6
176
     0
 90
        2
176
     0
 62
     7
176
     0
 90
        5
176
     0
 90
        0
176
     0
 90
        0
176
     0
290
     0
176
     0
 90
        1
176
     0
 40
0.0
176
     0
 90
        0
176
     0
290
     0
176
     0
290
     1
176
     0
290
     1
176
     0
290
     0
176
     0
290
     0
176
     0
290
     0
176
     0
290
     0
176
     0
290
     0
176
     0
290
     0
176
     0
 90
       50
176
     0
 40
0.0
176
     0
 40
1.0
176
     0
 90
        0
176
     0
 62
    18
420
        0
176
     0
 90
       50
176
     0
 90
        3
176
     0
 62
     5
420
      255
176
     0
290
     0
176
     0
 90
       50
176
     0
 90
       50
176
     0
 90
       50
176
     0
290
     0
176
     0
 90
       50
176
     0
 62
   256
176
     0
 40
1.0
176
     0
 90
        2
176
     0
  1
strokes_ogs.tif
176
     0
290
     0
176
     0
 40
1.0
176
     0
 40
1.0
176
     0
  0
VISUALSTYLE
  5
39
102
{ACAD_REACTORS
330
2A
102
}
330
2A
100
AcDbVisualStyle
  2
Facepattern
 70
    15
177
     3
291
     1
 70
    58
 90
        2
176
     1
 90
        2
176
     1
 90
        0
176
     1
 90
        0
176
     1
 40
0.6
176
     1
 40
30.0
176
     1
 62
     7
420
 16777215
176
     1
 90
        1
176
     1
 90
        4
176
     1
 62
     7
176
     1
 62
   257
176
     1
 90
        1
176
     1
 90
        1
176
     1
 40
1.0
176
     1
 90
        8
176
     1
 62
     7
176
     1
 40
1.0
176
     1
 90
        1
176
     1
 90
        6
176
     1
 90
        2
176
     1
 62
     7
176
     1
 90
        5
176
     1
 90
        0
176
     1
 90
        0
176
     1
290
     0
176
     1
 90
        1
176
     1
 40
0.0
176
     1
 90
        0
176
     1
290
     0
176
     1
290
     1
176
     1
290
     1
176
     1
290
     0
176
     1
290
     0
176
     1
290
     0
176
     1
290
     0
176
     1
290
     0
176
     1
290
     0
176
     1
 90
       50
176
     1
 40
0.0
176
     1
 40
1.0
176
     1
 90
        0
176
     1
 62
    18
420
        0
176
     1
 90
       50
176
     1
 90
        3
176
     1
 62
     5
420
      255
176
     1
290
     0
176
     1
 90
       50
176
     1
 90
       50
176
     1
 90
       50
176
     1
290
     0
176
     1
 90
       50
176
     1
 62
   256
176
     0
 40
1.0
176
     0
 90
        2
176
     1
  1
strokes_ogs.tif
176
     1
290
     0
176
     1
 40
1.0
176
     1
 40
1.0
176
     1
  0
VISUALSTYLE
  5
2B
102
{ACAD_REACTORS
330
2A
102
}
330
2A
100
AcDbVisualStyle
  2
Flat
 70
     0
177
     3
291
     1
 70
    58
 90
        2
176
     1
 90
        1
176
     1
 90
        1
176
     1
 90
        2
176
     1
 40
0.6
176
     1
 40
30.0
176
     1
 62
     7
420
 16777215
176
     1
 90
        0
176
     1
 90
        0
176
     1
 62
     7
176
     1
 62
   257
176
     1
 90
        1
176
     1
 90
        1
176
     1
 40
1.0
176
     1
 90
        8
176
     1
 62
     7
176
     1
 40
1.0
176
     1
 90
        1
176
     1
 90
        6
176
     1
 90
        2
176
     1
 62
     7
176
     1
 90
        5
176
     1
 90
        0
176
     1
 90
        0
176
     1
290
     0
176
     1
 90
       13
176
     1
 40
0.0
176
     1
 90
        0
176
     1
290
     0
176
     1
290
     1
176
     1
290
     1
176
     1
290
     0
176
     1
290
     0
176
     1
290
     0
176
     1
290
     0
176
     1
290
     0
176
     1
290
     0
176
     1
 90
       50
176
     1
 40
0.0
176
     1
 40
1.0
176
     1
 90
        0
176
     1
 62
    18
420
        0
176
     1
 90
       50
176
     1
 90
        3
176
     1
 62
     5
420
      255
176
     1
290
     0
176
     1
 90
       50
176
     1
 90
       50
176
     1
 90
       50
176
     1
290
     0
176
     1
 90
       50
176
     1
 62
   256
176
     0
 40
1.0
176
     0
 90
        2
176
     1
  1
strokes_ogs.tif
176
     1
290
     0
176
     1
 40
1.0
176
     1
 40
1.0
176
     1
  0
VISUALSTYLE
  5
2C
102
{ACAD_REACTORS
330
2A
102
}
330
2A
100
AcDbVisualStyle
  2
FlatWithEdges
 70
     1
177
     3
291
     1
 70
    58
 90
        2
176
     1
 90
        1
176
     1
 90
        1
176
     1
 90
        2
176
     1
 40
0.6
176
     1
 40
30.0
176
     1
 62
     7
420
 16777215
176
     1
 90
        1
176
     1
 90
        0
176
     1
 62
     7
176
     1
 62
   257
176
     1
 90
        1
176
     1
 90
        1
176
     1
 40
1.0
176
     1
 90
        0
176
     1
 62
   257
176
     1
 40
1.0
176
     1
 90
        1
176
     1
 90
        6
176
     1
 90
        2
176
     1
 62
     7
176
     1
 90
        5
176
     1
 90
        0
176
     1
 90
        0
176
     1
290
     0
176
     1
 90
       13
176
     1
 40
0.0
176
     1
 90
        0
176
     1
290
     0
176
     1
290
     1
176
     1
290
     1
176
     1
290
     0
176
     1
290
     0
176
     1
290
     0
176
     1
290
     0
176
     1
290
     0
176
     1
290
     0
176
     1
 90
       50
176
     1
 40
0.0
176
     1
 40
1.0
176
     1
 90
        0
176
     1
 62
    18
420
        0
176
     1
 90
       50
176
     1
 90
        3
176
     1
 62
     5
420
      255
176
     1
290
     0
176
     1
 90
       50
176
     1
 90
       50
176
     1
 90
       50
176
     1
290
     0
176
     1
 90
       50
176
     1
 62
   256
176
     0
 40
1.0
176
     0
 90
        2
176
     1
  1
strokes_ogs.tif
176
     1
290
     0
176
     1
 40
1.0
176
     1
 40
1.0
176
     1
  0
VISUALSTYLE
  5
2D
102
{ACAD_REACTORS
330
2A
102
}
330
2A
100
AcDbVisualStyle
  2
Gouraud
 70
     2
177
     3
291
     1
 70
    58
 90
        2
176
     1
 90
        2
176
     1
 90
        1
176
     1
 90
        2
176
     1
 40
0.6
176
     1
 40
30.0
176
     1
 62
     7
420
 16777215
176
     1
 90
        0
176
     1
 90
        0
176
     1
 62
     7
176
     1
 62
   257
176
     1
 90
        1
176
     1
 90
        1
176
     1
 40
1.0
176
     1
 90
        0
176
     1
 62
     7
176
     1
 40
1.0
176
     1
 90
        1
176
     1
 90
        6
176
     1
 90
        2
176
     1
 62
     7
176
     1
 90
        5
176
     1
 90
        0
176
     1
 90
        0
176
     1
290
     0
176
     1
 90
       13
176
     1
 40
0.0
176
     1
 90
        0
176
     1
290
     0
176
     1
290
     1
176
     1
290
     1
176
     1
290
     0
176
     1
290
     0
176
     1
290
     0
176
     1
290
     0
176
     1
290
     0
176
     1
290
     0
176
     1
 90
       50
176
     1
 40
0.0
176
     1
 40
1.0
176
     1
 90
        0
176
     1
 62
    18
420
        0
176
     1
 90
       50
176
     1
 90
        3
176
     1
 62
     5
420
      255
176
     1
290
     0
176
     1
 90
       50
176
     1
 90
       50
176
     1
 90
       50
176
     1
290
     0
176
     1
 90
       50
176
     1
 62
   256
176
     0
 40
1.0
176
     0
 90
        2
176
     1
  1
strokes_ogs.tif
176
     1
290
     0
176
     1
 40
1.0
176
     1
 40
1.0
176
     1
  0
VISUALSTYLE
  5
2E
102
{ACAD_REACTORS
330
2A
102
}
330
2A
100
AcDbVisualStyle
  2
GouraudWithEdges
 70
     3
177
     3
291
     1
 70
    58
 90
        2
176
     1
 90
        2
176
     1
 90
        1
176
     1
 90
        2
176
     1
 40
0.6
176
     1
 40
30.0
176
     1
 62
     7
420
 16777215
176
     1
 90
        1
176
     1
 90
        0
176
     1
 62
     7
176
     1
 62
   257
176
     1
 90
        1
176
     1
 90
        1
176
     1
 40
1.0
176
     1
 90
        0
176
     1
 62
   257
176
     1
 40
1.0
176
     1
 90
        1
176
     1
 90
        6
176
     1
 90
        2
176
     1
 62
     7
176
     1
 90
        5
176
     1
 90
        0
176
     1
 90
        0
176
     1
290
     0
176
     1
 90
       13
176
     1
 40
0.0
176
     1
 90
        0
176
     1
290
     0
176
     1
290
     1
176
     1
290
     1
176
     1
290
     0
176
     1
290
     0
176
     1
290
     0
176
     1
290
     0
176
     1
290
     0
176
     1
290
     0
176
     1
 90
       50
176
     1
 40
0.0
176
     1
 40
1.0
176
     1
 90
        0
176
     1
 62
    18
420
        0
176
     1
 90
       50
176
     1
 90
        3
176
     1
 62
     5
420
      255
176
     1
290
     0
176
     1
 90
       50
176
     1
 90
       50
176
     1
 90
       50
176
     1
290
     0
176
     1
 90
       50
176
     1
 62
   256
176
     0
 40
1.0
176
     0
 90
        2
176
     1
  1
strokes_ogs.tif
176
     1
290
     0
176
     1
 40
1.0
176
     1
 40
1.0
176
     1
  0
VISUALSTYLE
  5
31
102
{ACAD_REACTORS
330
2A
102
}
330
2A
100
AcDbVisualStyle
  2
Hidden
 70
     6
177
     3
291
     0
 70
    58
 90
        1
176
     1
 90
        2
176
     1
 90
        2
176
     1
 90
        0
176
     1
 40
0.6
176
     1
 40
30.0
176
     1
 62
     7
420
 16777215
176
     1
 90
        2
176
     1
 90
        2
176
     1
 62
     7
176
     1
 62
   257
176
     1
 90
        2
176
     1
 90
        1
176
     1
 40
40.0
176
     1
 90
        0
176
     1
 62
   257
176
     1
 40
1.0
176
     1
 90
        1
176
     1
 90
        6
176
     1
 90
        2
176
     1
 62
     7
176
     1
 90
        3
176
     1
 90
        0
176
     1
 90
        0
176
     1
290
     0
176
     1
 90
        1
176
     1
 40
0.0
176
     1
 90
        0
176
     1
290
     0
176
     1
290
     1
176
     1
290
     1
176
     1
290
     0
176
     1
290
     0
176
     1
290
     0
176
     1
290
     0
176
     1
290
     0
176
     1
290
     0
176
     1
 90
       50
176
     1
 40
0.0
176
     1
 40
1.0
176
     1
 90
        0
176
     1
 62
    18
420
        0
176
     1
 90
       50
176
     1
 90
        3
176
     1
 62
     5
420
      255
176
     1
290
     0
176
     1
 90
       50
176
     1
 90
       50
176
     1
 90
       50
176
     1
290
     0
176
     1
 90
       50
176
     1
 62
   256
176
     0
 40
1.0
176
     0
 90
        2
176
     1
  1
strokes_ogs.tif
176
     1
290
     0
176
     1
 40
1.0
176
     1
 40
1.0
176
     1
  0
VISUALSTYLE
  5
3B
102
{ACAD_REACTORS
330
2A
102
}
330
2A
100
AcDbVisualStyle
  2
JitterOff
 70
    20
177
     3
291
     1
 70
    58
 90
        2
176
     0
 90
        2
176
     0
 90
        0
176
     0
 90
        0
176
     0
 40
0.6
176
     0
 40
30.0
176
     0
 62
     7
420
 16777215
176
     0
 90
        1
176
     0
 90
        4
176
     0
 62
     7
176
     0
 62
   257
176
     0
 90
        1
176
     0
 90
        1
176
     0
 40
1.0
176
     0
 90
       10
176
     2
 62
     7
176
     0
 40
1.0
176
     0
 90
        1
176
     0
 90
        6
176
     0
 90
        2
176
     0
 62
     7
176
     0
 90
        5
176
     0
 90
        0
176
     0
 90
        0
176
     0
290
     0
176
     0
 90
        1
176
     0
 40
0.0
176
     0
 90
        0
176
     0
290
     0
176
     0
290
     1
176
     0
290
     1
176
     0
290
     0
176
     0
290
     0
176
     0
290
     0
176
     0
290
     0
176
     0
290
     0
176
     0
290
     0
176
     0
 90
       50
176
     0
 40
0.0
176
     0
 40
1.0
176
     0
 90
        0
176
     0
 62
    18
420
        0
176
     0
 90
       50
176
     0
 90
        3
176
     0
 62
     5
420
      255
176
     0
290
     0
176
     0
 90
       50
176
     0
 90
       50
176
     0
 90
       50
176
     0
290
     0
176
     0
 90
       50
176
     0
 62
   256
176
     0
 40
1.0
176
     0
 90
        2
176
     0
  1
strokes_ogs.tif
176
     0
290
     0
176
     0
 40
1.0
176
     0
 40
1.0
176
     0
  0
VISUALSTYLE
  5
38
102
{ACAD_REACTORS
330
2A
102
}
330
2A
100
AcDbVisualStyle
  2
Linepattern
 70
    14
177
     3
291
     1
 70
    58
 90
        2
176
     1
 90
        2
176
     1
 90
        0
176
     1
 90
        0
176
     1
 40
0.6
176
     1
 40
30.0
176
     1
 62
     7
420
 16777215
176
     1
 90
        1
176
     1
 90
        4
176
     1
 62
     7
176
     1
 62
   257
176
     1
 90
        7
176
     1
 90
        7
176
     1
 40
1.0
176
     1
 90
        8
176
     1
 62
     7
176
     1
 40
1.0
176
     1
 90
        1
176
     1
 90
        6
176
     1
 90
        2
176
     1
 62
     7
176
     1
 90
        5
176
     1
 90
        0
176
     1
 90
        0
176
     1
290
     0
176
     1
 90
        1
176
     1
 40
0.0
176
     1
 90
        0
176
     1
290
     0
176
     1
290
     1
176
     1
290
     1
176
     1
290
     0
176
     1
290
     0
176
     1
290
     0
176
     1
290
     0
176
     1
290
     0
176
     1
290
     0
176
     1
 90
       50
176
     1
 40
0.0
176
     1
 40
1.0
176
     1
 90
        0
176
     1
 62
    18
420
        0
176
     1
 90
       50
176
     1
 90
        3
176
     1
 62
     5
420
      255
176
     1
290
     0
176
     1
 90
       50
176
     1
 90
       50
176
     1
 90
       50
176
     1
290
     0
176
     1
 90
       50
176
     1
 62
   256
176
     0
 40
1.0
176
     0
 90
        2
176
     1
  1
strokes_ogs.tif
176
     1
290
     0
176
     1
 40
1.0
176
     1
 40
1.0
176
     1
  0
VISUALSTYLE
  5
3C
102
{ACAD_REACTORS
330
2A
102
}
330
2A
100
AcDbVisualStyle
  2
OverhangOff
 70
    21
177
     3
291
     1
 70
    58
 90
        2
176
     0
 90
        2
176
     0
 90
        0
176
     0
 90
        0
176
     0
 40
0.6
176
     0
 40
30.0
176
     0
 62
     7
420
 16777215
176
     0
 90
        1
176
     0
 90
        4
176
     0
 62
     7
176
     0
 62
   257
176
     0
 90
        1
176
     0
 90
        1
176
     0
 40
1.0
176
     0
 90
        9
176
     2
 62
     7
176
     0
 40
1.0
176
     0
 90
        1
176
     0
 90
        6
176
     0
 90
        2
176
     0
 62
     7
176
     0
 90
        5
176
     0
 90
        0
176
     0
 90
        0
176
     0
290
     0
176
     0
 90
        1
176
     0
 40
0.0
176
     0
 90
        0
176
     0
290
     0
176
     0
290
     1
176
     0
290
     1
176
     0
290
     0
176
     0
290
     0
176
     0
290
     0
176
     0
290
     0
176
     0
290
     0
176
     0
290
     0
176
     0
 90
       50
176
     0
 40
0.0
176
     0
 40
1.0
176
     0
 90
        0
176
     0
 62
    18
420
        0
176
     0
 90
       50
176
     0
 90
        3
176
     0
 62
     5
420
      255
176
     0
290
     0
176
     0
 90
       50
176
     0
 90
       50
176
     0
 90
       50
176
     0
290
     0
176
     0
 90
       50
176
     0
 62
   256
176
     0
 40
1.0
176
     0
 90
        2
176
     0
  1
strokes_ogs.tif
176
     0
290
     0
176
     0
 40
1.0
176
     0
 40
1.0
176
     0
  0
VISUALSTYLE
  5
33
102
{ACAD_REACTORS
330
2A
102
}
330
2A
100
AcDbVisualStyle
  2
Realistic
 70
     8
177
     3
291
     0
 70
    58
 90
        2
176
     1
 90
        3
176
     1
 90
        0
176
     1
 90
        2
176
     1
 40
0.6
176
     1
 40
30.0
176
     1
 62
     7
420
 16777215
176
     1
 90
        0
176
     1
 90
        0
176
     1
 62
     7
176
     1
 62
   257
176
     1
 90
        1
176
     1
 90
        1
176
     1
 40
1.0
176
     1
 90
        8
176
     1
 62
   257
176
     1
 40
1.0
176
     1
 90
        1
176
     1
 90
        6
176
     1
 90
        2
176
     1
 62
     7
176
     1
 90
        3
176
     1
 90
        0
176
     1
 90
        0
176
     1
290
     0
176
     1
 90
       13
176
     1
 40
0.0
176
     1
 90
        0
176
     1
290
     0
176
     1
290
     1
176
     1
290
     1
176
     1
290
     0
176
     1
290
     0
176
     1
290
     0
176
     1
290
     0
176
     1
290
     0
176
     1
290
     0
176
     1
 90
       50
176
     1
 40
0.0
176
     1
 40
1.0
176
     1
 90
        0
176
     1
 62
    18
420
        0
176
     1
 90
       50
176
     1
 90
        3
176
     1
 62
     5
420
      255
176
     1
290
     0
176
     1
 90
       50
176
     1
 90
       50
176
     1
 90
       50
176
     1
290
     0
176
     1
 90
       50
176
     1
 62
   256
176
     0
 40
1.0
176
     0
 90
        2
176
     1
  1
strokes_ogs.tif
176
     1
290
     0
176
     1
 40
1.0
176
     1
 40
1.0
176
     1
  0
VISUALSTYLE
  5
42
102
{ACAD_REACTORS
330
2A
102
}
330
2A
100
AcDbVisualStyle
  2
Shaded
 70
    27
177
     3
291
     0
 70
    58
 90
        2
176
     1
 90
        2
176
     1
 90
        1
176
     1
 90
        2
176
     1
 40
0.6
176
     1
 40
30.0
176
     1
 62
     7
420
 16777215
176
     1
 90
        0
176
     1
 90
        4
176
     1
 62
     7
176
     1
 62
   257
176
     1
 90
        1
176
     1
 90
        1
176
     1
 40
1.0
176
     1
 90
        8
176
     1
 62
   257
176
     1
 40
1.0
176
     1
 90
        1
176
     1
 90
        6
176
     1
 90
        2
176
     1
 62
     8
420
  7895160
176
     1
 90
        3
176
     1
 90
        0
176
     1
 90
        0
176
     1
290
     0
176
     1
 90
        5
176
     1
 40
0.0
176
     1
 90
        0
176
     1
290
     0
176
     1
290
     1
176
     1
290
     1
176
     1
290
     0
176
     1
290
     0
176
     1
290
     0
176
     1
290
     0
176
     1
290
     0
176
     1
290
     0
176
     1
 90
       50
176
     1
 40
0.0
176
     1
 40
1.0
176
     1
 90
        0
176
     1
 62
    18
420
        0
176
     1
 90
       50
176
     1
 90
        3
176
     1
 62
     5
420
      255
176
     1
290
     0
176
     1
 90
       50
176
     1
 90
       50
176
     1
 90
       50
176
     1
290
     0
176
     1
 90
       50
176
     1
 62
   256
176
     0
 40
1.0
176
     0
 90
        2
176
     1
  1
strokes_ogs.tif
176
     1
290
     0
176
     1
 40
1.0
176
     1
 40
1.0
176
     1
  0
VISUALSTYLE
  5
41
102
{ACAD_REACTORS
330
2A
102
}
330
2A
100
AcDbVisualStyle
  2
Shaded with edges
 70
    26
177
     3
291
     0
 70
    58
 90
        2
176
     1
 90
        2
176
     1
 90
        1
176
     1
 90
        2
176
     1
 40
0.6
176
     1
 40
30.0
176
     1
 62
     7
420
 16777215
176
     1
 90
        1
176
     1
 90
       10
176
     1
 62
     7
176
     1
 62
   257
176
     1
 90
        2
176
     1
 90
        1
176
     1
 40
1.0
176
     1
 90
        8
176
     1
 62
   257
176
     1
 40
1.0
176
     1
 90
        1
176
     1
 90
        6
176
     1
 90
        2
176
     1
 62
     7
176
     1
 90
        3
176
     1
 90
        0
176
     1
 90
        0
176
     1
290
     0
176
     1
 90
        5
176
     1
 40
0.0
176
     1
 90
        0
176
     1
290
     0
176
     1
290
     1
176
     1
290
     1
176
     1
290
     0
176
     1
290
     0
176
     1
290
     0
176
     1
290
     0
176
     1
290
     0
176
     1
290
     0
176
     1
 90
       50
176
     1
 40
0.0
176
     1
 40
1.0
176
     1
 90
        0
176
     1
 62
    18
420
        0
176
     1
 90
       50
176
     1
 90
        3
176
     1
 62
     5
420
      255
176
     1
290
     0
176
     1
 90
       50
176
     1
 90
       50
176
     1
 90
       50
176
     1
290
     0
176
     1
 90
       50
176
     1
 62
   256
176
     0
 40
1.0
176
     0
 90
        2
176
     1
  1
strokes_ogs.tif
176
     1
290
     0
176
     1
 40
1.0
176
     1
 40
1.0
176
     1
  0
VISUALSTYLE
  5
3E
102
{ACAD_REACTORS
330
2A
102
}
330
2A
100
AcDbVisualStyle
  2
Shades of Gray
 70
    23
177
     3
291
     0
 70
    58
 90
        2
176
     1
 90
        2
176
     1
 90
        3
176
     1
 90
        0
176
     1
 40
0.6
176
     1
 40
30.0
176
     1
 62
     7
420
 16777215
176
     1
 90
        2
176
     1
 90
        2
176
     1
 62
     7
176
     1
 62
     7
176
     1
 90
        1
176
     1
 90
        1
176
     1
 40
40.0
176
     1
 90
        8
176
     1
 62
     7
176
     1
 40
1.0
176
     1
 90
        1
176
     1
 90
        6
176
     1
 90
        2
176
     1
 62
     7
176
     1
 90
        3
176
     1
 90
        0
176
     1
 90
        0
176
     1
290
     0
176
     1
 90
        1
176
     1
 40
0.0
176
     1
 90
        0
176
     1
290
     0
176
     1
290
     1
176
     1
290
     1
176
     1
290
     0
176
     1
290
     0
176
     1
290
     0
176
     1
290
     0
176
     1
290
     0
176
     1
290
     0
176
     1
 90
       50
176
     1
 40
0.0
176
     1
 40
1.0
176
     1
 90
        0
176
     1
 62
    18
420
        0
176
     1
 90
       50
176
     1
 90
        3
176
     1
 62
     5
420
      255
176
     1
290
     0
176
     1
 90
       50
176
     1
 90
       50
176
     1
 90
       50
176
     1
290
     0
176
     1
 90
       50
176
     1
 62
   256
176
     0
 40
1.0
176
     0
 90
        2
176
     1
  1
strokes_ogs.tif
176
     1
290
     0
176
     1
 40
1.0
176
     1
 40
1.0
176
     1
  0
VISUALSTYLE
  5
3F
102
{ACAD_REACTORS
330
2A
102
}
330
2A
100
AcDbVisualStyle
  2
Sketchy
 70
    24
177
     3
291
     0
 70
    58
 90
        1
176
     1
 90
        2
176
     1
 90
        2
176
     1
 90
        0
176
     1
 40
0.6
176
     1
 40
30.0
176
     1
 62
     7
420
 16777215
176
     1
 90
        2
176
     1
 90
        2
176
     1
 62
     7
176
     1
 62
     7
176
     1
 90
        1
176
     1
 90
        1
176
     1
 40
40.0
176
     1
 90
       11
176
     1
 62
     7
176
     1
 40
1.0
176
     1
 90
        1
176
     1
 90
        6
176
     1
 90
        2
176
     1
 62
     7
176
     1
 90
        6
176
     1
 90
        0
176
     1
 90
        0
176
     1
290
     0
176
     1
 90
        1
176
     1
 40
0.0
176
     1
 90
        0
176
     1
290
     0
176
     1
290
     1
176
     1
290
     1
176
     1
290
     0
176
     1
290
     0
176
     1
290
     0
176
     1
290
     0
176
     1
290
     0
176
     1
290
     0
176
     1
 90
       50
176
     1
 40
0.0
176
     1
 40
1.0
176
     1
 90
        0
176
     1
 62
    18
420
        0
176
     1
 90
       50
176
     1
 90
        3
176
     1
 62
     5
420
      255
176
     1
290
     0
176
     1
 90
       50
176
     1
 90
       50
176
     1
 90
       50
176
     1
290
     0
176
     1
 90
       50
176
     1
 62
   256
176
     0
 40
1.0
176
     0
 90
        2
176
     1
  1
strokes_ogs.tif
176
     1
290
     0
176
     1
 40
1.0
176
     1
 40
1.0
176
     1
  0
VISUALSTYLE
  5
37
102
{ACAD_REACTORS
330
2A
102
}
330
2A
100
AcDbVisualStyle
  2
Thicken
 70
    13
177
     3
291
     1
 70
    58
 90
        2
176
     1
 90
        2
176
     1
 90
        0
176
     1
 90
        0
176
     1
 40
0.6
176
     1
 40
30.0
176
     1
 62
     7
420
 16777215
176
     1
 90
        1
176
     1
 90
        4
176
     1
 62
     7
176
     1
 62
   257
176
     1
 90
        1
176
     1
 90
        1
176
     1
 40
1.0
176
     1
 90
       12
176
     1
 62
     7
176
     1
 40
1.0
176
     1
 90
        1
176
     1
 90
        6
176
     1
 90
        2
176
     1
 62
     7
176
     1
 90
        5
176
     1
 90
        0
176
     1
 90
        0
176
     1
290
     0
176
     1
 90
        1
176
     1
 40
0.0
176
     1
 90
        0
176
     1
290
     0
176
     1
290
     1
176
     1
290
     1
176
     1
290
     0
176
     1
290
     0
176
     1
290
     0
176
     1
290
     0
176
     1
290
     0
176
     1
290
     0
176
     1
 90
       50
176
     1
 40
0.0
176
     1
 40
1.0
176
     1
 90
        0
176
     1
 62
    18
420
        0
176
     1
 90
       50
176
     1
 90
        3
176
     1
 62
     5
420
      255
176
     1
290
     0
176
     1
 90
       50
176
     1
 90
       50
176
     1
 90
       50
176
     1
290
     0
176
     1
 90
       50
176
     1
 62
   256
176
     0
 40
1.0
176
     0
 90
        2
176
     1
  1
strokes_ogs.tif
176
     1
290
     0
176
     1
 40
1.0
176
     1
 40
1.0
176
     1
  0
VISUALSTYLE
  5
30
102
{ACAD_REACTORS
330
2A
102
}
330
2A
100
AcDbVisualStyle
  2
Wireframe
 70
     5
177
     3
291
     0
 70
    58
 90
        0
176
     1
 90
        2
176
     1
 90
        0
176
     1
 90
        0
176
     1
 40
0.6
176
     1
 40
30.0
176
     1
 62
     7
420
 16777215
176
     1
 90
        1
176
     1
 90
        4
176
     1
 62
     7
176
     1
 62
   257
176
     1
 90
        1
176
     1
 90
        1
176
     1
 40
1.0
176
     1
 90
        0
176
     1
 62
   257
176
     1
 40
1.0
176
     1
 90
        1
176
     1
 90
        6
176
     1
 90
        2
176
     1
 62
     7
176
     1
 90
        3
176
     1
 90
        0
176
     1
 90
        0
176
     1
290
     0
176
     1
 90
        1
176
     1
 40
0.0
176
     1
 90
        0
176
     1
290
     0
176
     1
290
     1
176
     1
290
     1
176
     1
290
     0
176
     1
290
     0
176
     1
290
     0
176
     1
290
     0
176
     1
290
     0
176
     1
290
     0
176
     1
 90
       50
176
     1
 40
0.0
176
     1
 40
1.0
176
     1
 90
        0
176
     1
 62
    18
420
        0
176
     1
 90
       50
176
     1
 90
        3
176
     1
 62
     5
420
      255
176
     1
290
     0
176
     1
 90
       50
176
     1
 90
       50
176
     1
 90
       50
176
     1
290
     0
176
     1
 90
       50
176
     1
 62
   256
176
     0
 40
1.0
176
     0
 90
        2
176
     1
  1
strokes_ogs.tif
176
     1
290
     0
176
     1
 40
1.0
176
     1
 40
1.0
176
     1
  0
VISUALSTYLE
  5
40
102
{ACAD_REACTORS
330
2A
102
}
330
2A
100
AcDbVisualStyle
  2
X-Ray
 70
    25
177
     3
291
     0
 70
    58
 90
        2
176
     1
 90
        2
176
     1
 90
        1
176
     1
 90
        1
176
     1
 40
0.5
176
     1
 40
30.0
176
     1
 62
     7
420
 16777215
176
     1
 90
        1
176
     1
 90
        0
176
     1
 62
     7
176
     1
 62
   257
176
     1
 90
        1
176
     1
 90
        1
176
     1
 40
1.0
176
     1
 90
        8
176
     1
 62
     7
176
     1
 40
1.0
176
     1
 90
        1
176
     1
 90
        6
176
     1
 90
        2
176
     1
 62
     7
176
     1
 90
        3
176
     1
 90
        0
176
     1
 90
        0
176
     1
290
     0
176
     1
 90
       13
176
     1
 40
0.0
176
     1
 90
        0
176
     1
290
     0
176
     1
290
     1
176
     1
290
     1
176
     1
290
     0
176
     1
290
     0
176
     1
290
     0
176
     1
290
     0
176
     1
290
     0
176
     1
290
     0
176
     1
 90
       50
176
     1
 40
0.0
176
     1
 40
1.0
176
     1
 90
        0
176
     1
 62
    18
420
        0
176
     1
 90
       50
176
     1
 90
        3
176
     1
 62
     5
420
      255
176
     1
290
     0
176
     1
 90
       50
176
     1
 90
       50
176
     1
 90
       50
176
     1
290
     0
176
     1
 90
       50
176
     1
 62
   256
176
     0
 40
1.0
176
     0
 90
        2
176
     1
  1
strokes_ogs.tif
176
     1
290
     0
176
     1
 40
1.0
176
     1
 40
1.0
176
     1
  0
DICTIONARYVAR
  5
1AE
102
{ACAD_REACTORS
330
1AD
102
}
330
1AD
100
DictionaryVariables
280
     0
  1
1:1
  0
DICTIONARYVAR
  5
1B6
102
{ACAD_REACTORS
330
1AD
102
}
330
1AD
100
DictionaryVariables
280
     0
  1
3.500000
  0
DICTIONARYVAR
  5
1B7
102
{ACAD_REACTORS
330
1AD
102
}
330
1AD
100
DictionaryVariables
280
     0
  1
acadiso.lin
  0
DICTIONARYVAR
  5
1B3
102
{ACAD_REACTORS
330
1AD
102
}
330
1AD
100
DictionaryVariables
280
     0
  1
Standard
  0
DICTIONARYVAR
  5
1B2
102
{ACAD_REACTORS
330
1AD
102
}
330
1AD
100
DictionaryVariables
280
     0
  1
Standard
  0
DICTIONARY
  5
1AF
330
6A
100
AcDbDictionary
280
     1
281
     1
  3
ACAD_ROUNDTRIP_2008_TABLESTYLE_CELLSTYLEMAP
360
1B0
  0
CELLSTYLEMAP
  5
1B0
102
{ACAD_REACTORS
330
1AF
102
}
330
1AF
100
AcDbCellStyleMap
 90
        3
300
CELLSTYLE
  1
TABLEFORMAT_BEGIN
 90
        5
170
     1
 91
        0
 92
    32768
 62
   257
 93
        1
300
CONTENTFORMAT
  1
CONTENTFORMAT_BEGIN
 90
        0
 91
        0
 92
        4
 93
        0
300

 40
0.0
140
1.0
 94
        5
 62
     0
340
11
144
6.0
309
CONTENTFORMAT_END
171
     1
301
MARGIN
  1
CELLMARGIN_BEGIN
 40
1.5
 40
1.5
 40
1.5
 40
1.5
 40
1.5
 40
1.5
309
CELLMARGIN_END
 94
        6
 95
        1
302
GRIDFORMAT
  1
GRIDFORMAT_BEGIN
 90
        0
 91
        1
 62
     0
 92
       -2
340
14
 93
        0
 40
0.045
309
GRIDFORMAT_END
 95
        2
302
GRIDFORMAT
  1
GRIDFORMAT_BEGIN
 90
        0
 91
        1
 62
     0
 92
       -2
340
14
 93
        0
 40
0.045
309
GRIDFORMAT_END
 95
        4
302
GRIDFORMAT
  1
GRIDFORMAT_BEGIN
 90
        0
 91
        1
 62
     0
 92
       -2
340
14
 93
        0
 40
0.045
309
GRIDFORMAT_END
 95
        8
302
GRIDFORMAT
  1
GRIDFORMAT_BEGIN
 90
        0
 91
        1
 62
     0
 92
       -2
340
14
 93
        0
 40
0.045
309
GRIDFORMAT_END
 95
       16
302
GRIDFORMAT
  1
GRIDFORMAT_BEGIN
 90
        0
 91
        1
 62
     0
 92
       -2
340
14
 93
        0
 40
0.045
309
GRIDFORMAT_END
 95
       32
302
GRIDFORMAT
  1
GRIDFORMAT_BEGIN
 90
        0
 91
        1
 62
     0
 92
       -2
340
14
 93
        0
 40
0.045
309
GRIDFORMAT_END
309
TABLEFORMAT_END
  1
CELLSTYLE_BEGIN
 90
        1
 91
        1
300
_TITLE
309
CELLSTYLE_END
300
CELLSTYLE
  1
TABLEFORMAT_BEGIN
 90
        5
170
     1
 91
        0
 92
        0
 62
   257
 93
        1
300
CONTENTFORMAT
  1
CONTENTFORMAT_BEGIN
 90
        0
 91
        0
 92
        4
 93
        0
300

 40
0.0
140
1.0
 94
        5
 62
     0
340
11
144
4.5
309
CONTENTFORMAT_END
171
     1
301
MARGIN
  1
CELLMARGIN_BEGIN
 40
1.5
 40
1.5
 40
1.5
 40
1.5
 40
1.5
 40
1.5
309
CELLMARGIN_END
 94
        6
 95
        1
302
GRIDFORMAT
  1
GRIDFORMAT_BEGIN
 90
        0
 91
        1
 62
     0
 92
       -2
340
14
 93
        0
 40
0.045
309
GRIDFORMAT_END
 95
        2
302
GRIDFORMAT
  1
GRIDFORMAT_BEGIN
 90
        0
 91
        1
 62
     0
 92
       -2
340
14
 93
        0
 40
0.045
309
GRIDFORMAT_END
 95
        4
302
GRIDFORMAT
  1
GRIDFORMAT_BEGIN
 90
        0
 91
        1
 62
     0
 92
       -2
340
14
 93
        0
 40
0.045
309
GRIDFORMAT_END
 95
        8
302
GRIDFORMAT
  1
GRIDFORMAT_BEGIN
 90
        0
 91
        1
 62
     0
 92
       -2
340
14
 93
        0
 40
0.045
309
GRIDFORMAT_END
 95
       16
302
GRIDFORMAT
  1
GRIDFORMAT_BEGIN
 90
        0
 91
        1
 62
     0
 92
       -2
340
14
 93
        0
 40
0.045
309
GRIDFORMAT_END
 95
       32
302
GRIDFORMAT
  1
GRIDFORMAT_BEGIN
 90
        0
 91
        1
 62
     0
 92
       -2
340
14
 93
        0
 40
0.045
309
GRIDFORMAT_END
309
TABLEFORMAT_END
  1
CELLSTYLE_BEGIN
 90
        2
 91
        1
300
_HEADER
309
CELLSTYLE_END
300
CELLSTYLE
  1
TABLEFORMAT_BEGIN
 90
        5
170
     1
 91
        0
 92
        0
 62
   257
 93
        1
300
CONTENTFORMAT
  1
CONTENTFORMAT_BEGIN
 90
        0
 91
        0
 92
        4
 93
        0
300

 40
0.0
140
1.0
 94
        2
 62
     0
340
11
144
4.5
309
CONTENTFORMAT_END
171
     1
301
MARGIN
  1
CELLMARGIN_BEGIN
 40
1.5
 40
1.5
 40
1.5
 40
1.5
 40
1.5
 40
1.5
309
CELLMARGIN_END
 94
        6
 95
        1
302
GRIDFORMAT
  1
GRIDFORMAT_BEGIN
 90
        0
 91
        1
 62
     0
 92
       -2
340
14
 93
        0
 40
0.045
309
GRIDFORMAT_END
 95
        2
302
GRIDFORMAT
  1
GRIDFORMAT_BEGIN
 90
        0
 91
        1
 62
     0
 92
       -2
340
14
 93
        0
 40
0.045
309
GRIDFORMAT_END
 95
        4
302
GRIDFORMAT
  1
GRIDFORMAT_BEGIN
 90
        0
 91
        1
 62
     0
 92
       -2
340
14
 93
        0
 40
0.045
309
GRIDFORMAT_END
 95
        8
302
GRIDFORMAT
  1
GRIDFORMAT_BEGIN
 90
        0
 91
        1
 62
     0
 92
       -2
340
14
 93
        0
 40
0.045
309
GRIDFORMAT_END
 95
       16
302
GRIDFORMAT
  1
GRIDFORMAT_BEGIN
 90
        0
 91
        1
 62
     0
 92
       -2
340
14
 93
        0
 40
0.045
309
GRIDFORMAT_END
 95
       32
302
GRIDFORMAT
  1
GRIDFORMAT_BEGIN
 90
        0
 91
        1
 62
     0
 92
       -2
340
14
 93
        0
 40
0.045
309
GRIDFORMAT_END
309
TABLEFORMAT_END
  1
CELLSTYLE_BEGIN
 90
        3
 91
        2
300
_DATA
309
CELLSTYLE_END
  0
ENDSEC
  0
EOF
