  0
SECTION
  2
HEADER
  9
$ACADVER
  1
AC1032
  9
$ACADMAINTVER
 90
        4
  9
$DWGCODEPAGE
  3
ANSI_1251
  9
$REQUIREDVERSIONS
160
                 0
  9
$INSBASE
 10
0.0
 20
0.0
 30
0.0
  9
$EXTMIN
 10
0.0
 20
0.0
 30
0.0
  9
$EXTMAX
 10
210.0
 20
420.0
 30
0.0
  9
$LIMMIN
 10
0.0
 20
0.0
  9
$LIMMAX
 10
210.0
 20
420.0
  9
$ORTHOMODE
 70
     0
  9
$REGENMODE
 70
     1
  9
$FILLMODE
 70
     1
  9
$QTEXTMODE
 70
     0
  9
$MIRRTEXT
 70
     1
  9
$LTSCALE
 40
1.0
  9
$ATTMODE
 70
     1
  9
$TEXTSIZE
 40
3.5
  9
$TRACEWID
 40
1.0
  9
$TEXTSTYLE
  7
Standard
  9
$CLAYER
  8
0
  9
$CELTYPE
  6
ByLayer
  9
$CECOLOR
 62
   256
  9
$CELTSCALE
 40
1.0
  9
$DISPSILH
 70
     0
  9
$DIMSCALE
 40
1.0
  9
$DIMASZ
 40
3.0
  9
$DIMEXO
 40
1.0
  9
$DIMDLI
 40
3.75
  9
$DIMRND
 40
0.0
  9
$DIMDLE
 40
0.0
  9
$DIMEXE
 40
2.0
  9
$DIMTP
 40
0.0
  9
$DIMTM
 40
0.0
  9
$DIMTXT
 40
3.5
  9
$DIMCEN
 40
2.5
  9
$DIMTSZ
 40
0.0
  9
$DIMTOL
 70
     0
  9
$DIMLIM
 70
     0
  9
$DIMTIH
 70
     1
  9
$DIMTOH
 70
     1
  9
$DIMSE1
 70
     0
  9
$DIMSE2
 70
     0
  9
$DIMTAD
 70
     1
  9
$DIMZIN
 70
     0
  9
$DIMBLK
  1

  9
$DIMASO
 70
     1
  9
$DIMSHO
 70
     1
  9
$DIMPOST
  1

  9
$DIMAPOST
  1

  9
$DIMALT
 70
     0
  9
$DIMALTD
 70
     3
  9
$DIMALTF
 40
0.0393700787
  9
$DIMLFAC
 40
1.0
  9
$DIMTOFL
 70
     1
  9
$DIMTVP
 40
0.0
  9
$DIMTIX
 70
     0
  9
$DIMSOXD
 70
     0
  9
$DIMSAH
 70
     0
  9
$DIMBLK1
  1

  9
$DIMBLK2
  1

  9
$DIMSTYLE
  2
ISO-25
  9
$DIMCLRD
 70
     0
  9
$DIMCLRE
 70
     0
  9
$DIMCLRT
 70
     0
  9
$DIMTFAC
 40
1.0
  9
$DIMGAP
 40
1.524
  9
$DIMJUST
 70
     0
  9
$DIMSD1
 70
     0
  9
$DIMSD2
 70
     0
  9
$DIMTOLJ
 70
     0
  9
$DIMTZIN
 70
     0
  9
$DIMALTZ
 70
     0
  9
$DIMALTTZ
 70
     0
  9
$DIMUPT
 70
     0
  9
$DIMDEC
 70
     1
  9
$DIMTDEC
 70
     1
  9
$DIMALTU
 70
     2
  9
$DIMALTTD
 70
     3
  9
$DIMTXSTY
  7
Standard
  9
$DIMAUNIT
 70
     0
  9
$DIMADEC
 70
     2
  9
$DIMALTRND
 40
0.0
  9
$DIMAZIN
 70
     0
  9
$DIMDSEP
 70
    44
  9
$DIMATFIT
 70
     3
  9
$DIMFRAC
 70
     0
  9
$DIMLDRBLK
  1

  9
$DIMLUNIT
 70
     2
  9
$DIMLWD
 70
    -2
  9
$DIMLWE
 70
    -2
  9
$DIMTMOVE
 70
     0
  9
$DIMFXL
 40
1.0
  9
$DIMFXLON
 70
     0
  9
$DIMJOGANG
 40
0.7853981634
  9
$DIMTFILL
 70
     0
  9
$DIMTFILLCLR
 70
     0
  9
$DIMARCSYM
 70
     0
  9
$DIMLTYPE
  6

  9
$DIMLTEX1
  6

  9
$DIMLTEX2
  6

  9
$DIMTXTDIRECTION
 70
     0
  9
$LUNITS
 70
     2
  9
$LUPREC
 70
     2
  9
$SKETCHINC
 40
1.0
  9
$FILLETRAD
 40
10.0
  9
$AUNITS
 70
     0
  9
$AUPREC
 70
     2
  9
$MENU
  1
.
  9
$ELEVATION
 40
0.0
  9
$PELEVATION
 40
0.0
  9
$THICKNESS
 40
0.0
  9
$LIMCHECK
 70
     0
  9
$CHAMFERA
 40
0.0
  9
$CHAMFERB
 40
0.0
  9
$CHAMFERC
 40
0.0
  9
$CHAMFERD
 40
0.0
  9
$SKPOLY
 70
     0
  9
$TDCREATE
 40
2459303.604958102
  9
$TDUCREATE
 40
2459303.479958102
  9
$TDUPDATE
 40
2459303.604958588
  9
$TDUUPDATE
 40
2459303.479958588
  9
$TDINDWG
 40
0.0000000116
  9
$TDUSRTIMER
 40
0.0000000116
  9
$USRTIMER
 70
     1
  9
$ANGBASE
 50
0.0
  9
$ANGDIR
 70
     0
  9
$PDMODE
 70
     0
  9
$PDSIZE
 40
-1.0
  9
$PLINEWID
 40
0.0
  9
$SPLFRAME
 70
     0
  9
$SPLINETYPE
 70
     6
  9
$SPLINESEGS
 70
     8
  9
$HANDSEED
  5
1A4
  9
$SURFTAB1
 70
     6
  9
$SURFTAB2
 70
     6
  9
$SURFTYPE
 70
     6
  9
$SURFU
 70
     6
  9
$SURFV
 70
     6
  9
$UCSBASE
  2

  9
$UCSNAME
  2

  9
$UCSORG
 10
0.0
 20
0.0
 30
0.0
  9
$UCSXDIR
 10
1.0
 20
0.0
 30
0.0
  9
$UCSYDIR
 10
0.0
 20
1.0
 30
0.0
  9
$UCSORTHOREF
  2

  9
$UCSORTHOVIEW
 70
     0
  9
$UCSORGTOP
 10
0.0
 20
0.0
 30
0.0
  9
$UCSORGBOTTOM
 10
0.0
 20
0.0
 30
0.0
  9
$UCSORGLEFT
 10
0.0
 20
0.0
 30
0.0
  9
$UCSORGRIGHT
 10
0.0
 20
0.0
 30
0.0
  9
$UCSORGFRONT
 10
0.0
 20
0.0
 30
0.0
  9
$UCSORGBACK
 10
0.0
 20
0.0
 30
0.0
  9
$PUCSBASE
  2

  9
$PUCSNAME
  2

  9
$PUCSORG
 10
0.0
 20
0.0
 30
0.0
  9
$PUCSXDIR
 10
1.0
 20
0.0
 30
0.0
  9
$PUCSYDIR
 10
0.0
 20
1.0
 30
0.0
  9
$PUCSORTHOREF
  2

  9
$PUCSORTHOVIEW
 70
     0
  9
$PUCSORGTOP
 10
0.0
 20
0.0
 30
0.0
  9
$PUCSORGBOTTOM
 10
0.0
 20
0.0
 30
0.0
  9
$PUCSORGLEFT
 10
0.0
 20
0.0
 30
0.0
  9
$PUCSORGRIGHT
 10
0.0
 20
0.0
 30
0.0
  9
$PUCSORGFRONT
 10
0.0
 20
0.0
 30
0.0
  9
$PUCSORGBACK
 10
0.0
 20
0.0
 30
0.0
  9
$USERI1
 70
     0
  9
$USERI2
 70
     0
  9
$USERI3
 70
     0
  9
$USERI4
 70
     0
  9
$USERI5
 70
     0
  9
$USERR1
 40
0.0
  9
$USERR2
 40
0.0
  9
$USERR3
 40
0.0
  9
$USERR4
 40
0.0
  9
$USERR5
 40
0.0
  9
$WORLDVIEW
 70
     1
  9
$SHADEDGE
 70
     3
  9
$SHADEDIF
 70
    70
  9
$TILEMODE
 70
     1
  9
$MAXACTVP
 70
    64
  9
$PINSBASE
 10
0.0
 20
0.0
 30
0.0
  9
$PLIMCHECK
 70
     0
  9
$PEXTMIN
 10
1.0000000000E+20
 20
1.0000000000E+20
 30
1.0000000000E+20
  9
$PEXTMAX
 10
-1.0000000000E+20
 20
-1.0000000000E+20
 30
-1.0000000000E+20
  9
$PLIMMIN
 10
0.0
 20
0.0
  9
$PLIMMAX
 10
420.0
 20
297.0
  9
$UNITMODE
 70
     0
  9
$VISRETAIN
 70
     1
  9
$PLINEGEN
 70
     0
  9
$PSLTSCALE
 70
     1
  9
$TREEDEPTH
 70
  3020
  9
$CMLSTYLE
  2
Standard
  9
$CMLJUST
 70
     0
  9
$CMLSCALE
 40
20.0
  9
$PROXYGRAPHICS
 70
     1
  9
$MEASUREMENT
 70
     1
  9
$CELWEIGHT
370
    -1
  9
$ENDCAPS
280
     0
  9
$JOINSTYLE
280
     0
  9
$LWDISPLAY
290
     1
  9
$INSUNITS
 70
     4
  9
$HYPERLINKBASE
  1

  9
$STYLESHEET
  1

  9
$XEDIT
290
     1
  9
$CEPSNTYPE
380
     0
  9
$PSTYLEMODE
290
     1
  9
$FINGERPRINTGUID
  2
{2a726fbc-5ae5-412f-83dc-e013efc244fb}
  9
$VERSIONGUID
  2
{FAEB1C32-E019-11D5-929B-00C0DF256EC4}
  9
$EXTNAMES
290
     1
  9
$PSVPSCALE
 40
0.0
  9
$OLESTARTUP
290
     0
  9
$SORTENTS
280
   127
  9
$INDEXCTL
280
     0
  9
$HIDETEXT
280
     1
  9
$XCLIPFRAME
280
     2
  9
$HALOGAP
280
     0
  9
$OBSCOLOR
 70
   257
  9
$OBSLTYPE
280
     0
  9
$INTERSECTIONDISPLAY
280
     0
  9
$INTERSECTIONCOLOR
 70
   257
  9
$DIMASSOC
280
     2
  9
$PROJECTNAME
  1

  9
$CAMERADISPLAY
290
     0
  9
$LENSLENGTH
 40
50.0
  9
$CAMERAHEIGHT
 40
0.0
  9
$STEPSPERSEC
 40
2.0
  9
$STEPSIZE
 40
6.0
  9
$3DDWFPREC
 40
2.0
  9
$PSOLWIDTH
 40
5.0
  9
$PSOLHEIGHT
 40
80.0
  9
$LOFTANG1
 40
1.5707963268
  9
$LOFTANG2
 40
1.5707963268
  9
$LOFTMAG1
 40
0.0
  9
$LOFTMAG2
 40
0.0
  9
$LOFTPARAM
 70
     7
  9
$LOFTNORMALS
280
     1
  9
$LATITUDE
 40
37.795
  9
$LONGITUDE
 40
-122.394
  9
$NORTHDIRECTION
 40
0.0
  9
$TIMEZONE
 70
 -8000
  9
$LIGHTGLYPHDISPLAY
280
     1
  9
$TILEMODELIGHTSYNCH
280
     1
  9
$CMATERIAL
347
44
  9
$SOLIDHIST
280
     0
  9
$SHOWHIST
280
     1
  9
$DWFFRAME
280
     2
  9
$DGNFRAME
280
     2
  9
$REALWORLDSCALE
290
     1
  9
$INTERFERECOLOR
 62
   256
  9
$CSHADOW
280
     0
  9
$SHADOWPLANELOCATION
 40
0.0
  0
ENDSEC
  0
SECTION
  2
CLASSES
  0
CLASS
  1
ACDBDICTIONARYWDFLT
  2
AcDbDictionaryWithDefault
  3
ObjectDBX Classes
 90
        0
 91
        3
280
     0
281
     0
  0
CLASS
  1
VISUALSTYLE
  2
AcDbVisualStyle
  3
ObjectDBX Classes
 90
     4095
 91
        3
280
     0
281
     0
  0
CLASS
  1
MATERIAL
  2
AcDbMaterial
  3
ObjectDBX Classes
 90
     1153
 91
        3
280
     0
281
     0
  0
CLASS
  1
SCALE
  2
AcDbScale
  3
ObjectDBX Classes
 90
     1153
 91
        3
280
     0
281
     0
  0
CLASS
  1
TABLESTYLE
  2
AcDbTableStyle
  3
ObjectDBX Classes
 90
     4095
 91
        3
280
     0
281
     0
  0
CLASS
  1
MLEADERSTYLE
  2
AcDbMLeaderStyle
  3
ACDB_MLEADERSTYLE_CLASS
 90
     4095
 91
        3
280
     0
281
     0
  0
CLASS
  1
SUN
  2
AcDbSun
  3
SCENEOE
 90
     1153
 91
        3
280
     0
281
     0
  0
CLASS
  1
DICTIONARYVAR
  2
AcDbDictionaryVar
  3
ObjectDBX Classes
 90
        0
 91
        3
280
     0
281
     0
  0
CLASS
  1
CELLSTYLEMAP
  2
AcDbCellStyleMap
  3
ObjectDBX Classes
 90
     1152
 91
        3
280
     0
281
     0
  0
ENDSEC
  0
SECTION
  2
TABLES
  0
TABLE
  2
VPORT
  5
8
330
0
100
AcDbSymbolTable
 70
     1
  0
VPORT
  5
29
330
8
100
AcDbSymbolTableRecord
100
AcDbViewportTableRecord
  2
*Active
 70
     0
 10
0.0
 20
0.0
 11
1.0
 21
1.0
 12
105.0
 22
210.0
 13
0.0
 23
0.0
 14
10.0
 24
10.0
 15
10.0
 25
10.0
 16
0.0
 26
0.0
 36
1.0
 17
0.0
 27
0.0
 37
0.0
 40
420.0
 41
0.5
 42
50.0
 43
0.0
 44
0.0
 50
0.0
 51
0.0
 71
     0
 72
  2000
 73
     1
 74
     3
 75
     0
 76
     0
 77
     0
 78
     0
281
     0
 65
     1
110
0.0
120
0.0
130
0.0
111
1.0
121
0.0
131
0.0
112
0.0
122
1.0
132
0.0
 79
     0
146
0.0
348
2F
 60
     3
 61
     5
292
     1
282
     1
141
0.0
142
0.0
 63
   250
361
6D
  0
ENDTAB
  0
TABLE
  2
LTYPE
  5
5
330
0
100
AcDbSymbolTable
 70
     6
  0
LTYPE
  5
14
330
5
100
AcDbSymbolTableRecord
100
AcDbLinetypeTableRecord
  2
ByBlock
 70
     0
  3

 72
    65
 73
     0
 40
0.0
  0
LTYPE
  5
15
330
5
100
AcDbSymbolTableRecord
100
AcDbLinetypeTableRecord
  2
ByLayer
 70
     0
  3

 72
    65
 73
     0
 40
0.0
  0
LTYPE
  5
16
330
5
100
AcDbSymbolTableRecord
100
AcDbLinetypeTableRecord
  2
Continuous
 70
     0
  3
Solid line
 72
    65
 73
     0
 40
0.0
  0
LTYPE
  5
6E
330
5
100
AcDbSymbolTableRecord
100
AcDbLinetypeTableRecord
  2
HIDDEN
 70
     0
  3
Hidden __ __ __ __ __ __ __ __ __ __ __ __ __ __
 72
    65
 73
     2
 40
1.905
 49
1.27
 74
     0
 49
-0.635
 74
     0
  0
LTYPE
  5
6F
330
5
100
AcDbSymbolTableRecord
100
AcDbLinetypeTableRecord
  2
PHANTOM
 70
     0
  3
Phantom ______  __  __  ______  __  __  ______
 72
    65
 73
     6
 40
12.7
 49
6.35
 74
     0
 49
-1.27
 74
     0
 49
1.27
 74
     0
 49
-1.27
 74
     0
 49
1.27
 74
     0
 49
-1.27
 74
     0
  0
LTYPE
  5
70
330
5
100
AcDbSymbolTableRecord
100
AcDbLinetypeTableRecord
  2
CENTER
 70
     0
  3
Center ____ _ ____ _ ____ _ ____ _ ____ _ ____
 72
    65
 73
     4
 40
10.16
 49
6.35
 74
     0
 49
-1.27
 74
     0
 49
1.27
 74
     0
 49
-1.27
 74
     0
  0
LTYPE
  5
71
330
5
100
AcDbSymbolTableRecord
100
AcDbLinetypeTableRecord
  2
CENTERX2
 70
     0
  3
Center (2x) ________  __  ________  __  _____
 72
    65
 73
     4
 40
20.32
 49
12.7
 74
     0
 49
-2.54
 74
     0
 49
2.54
 74
     0
 49
-2.54
 74
     0
  0
LTYPE
  5
72
330
5
100
AcDbSymbolTableRecord
100
AcDbLinetypeTableRecord
  2
DOT2
 70
     0
  3
Dot (.5x) ........................................
 72
    65
 73
     2
 40
0.635
 49
0.0
 74
     0
 49
-0.635
 74
     0
  0
ENDTAB
  0
TABLE
  2
LAYER
  5
2
330
0
100
AcDbSymbolTable
 70
     4
  0
LAYER
  5
10
330
2
100
AcDbSymbolTableRecord
100
AcDbLayerTableRecord
  2
0
 70
     0
 62
     7
  6
Continuous
370
    -3
390
F
347
46
348
0
  0
LAYER
  5
73
330
2
100
AcDbSymbolTableRecord
100
AcDbLayerTableRecord
  2
ЧЕРТЕЖ
 70
     0
 62
     7
  6
Continuous
370
    -3
390
F
347
46
348
0
  0
LAYER
  5
74
330
2
100
AcDbSymbolTableRecord
100
AcDbLayerTableRecord
  2
ОСНОВНАЯ_НАДПИСЬ
 70
     0
 62
     7
  6
Continuous
370
    -3
390
F
347
46
348
0
  0
LAYER
  5
75
330
2
100
AcDbSymbolTableRecord
100
AcDbLayerTableRecord
  2
SLD-0
 70
     0
 62
   179
  6
Continuous
370
    -3
390
F
347
46
348
0
  0
ENDTAB
  0
TABLE
  2
STYLE
  5
3
330
0
100
AcDbSymbolTable
 70
     1
  0
STYLE
  5
11
330
3
100
AcDbSymbolTableRecord
100
AcDbTextStyleTableRecord
  2
Standard
 70
     0
 40
0.0
 41
1.0
 50
0.0
 71
     0
 42
3.5
  3
txt
  4

  0
ENDTAB
  0
TABLE
  2
VIEW
  5
6
330
0
100
AcDbSymbolTable
 70
     0
  0
ENDTAB
  0
TABLE
  2
UCS
  5
7
330
0
100
AcDbSymbolTable
 70
     0
  0
ENDTAB
  0
TABLE
  2
APPID
  5
9
330
0
100
AcDbSymbolTable
 70
     1
  0
APPID
  5
12
330
9
100
AcDbSymbolTableRecord
100
AcDbRegAppTableRecord
  2
ACAD
 70
     0
  0
ENDTAB
  0
TABLE
  2
DIMSTYLE
  5
A
330
0
100
AcDbSymbolTable
 70
     1
100
AcDbDimStyleTable
  0
DIMSTYLE
105
27
330
A
100
AcDbSymbolTableRecord
100
AcDbDimStyleTableRecord
  2
ISO-25
 70
     0
 41
2.5
 42
0.625
 43
3.75
 44
1.25
 73
     0
 74
     0
 77
     1
 78
     8
140
2.5
141
2.5
143
0.0393700787
147
0.625
171
     3
172
     1
178
     0
271
     2
272
     2
274
     3
278
    44
283
     0
284
     8
340
11
  0
ENDTAB
  0
TABLE
  2
BLOCK_RECORD
  5
1
330
0
100
AcDbSymbolTable
 70
     1
  0
BLOCK_RECORD
  5
1F
330
1
100
AcDbSymbolTableRecord
100
AcDbBlockTableRecord
  2
*Model_Space
340
22
 70
     0
280
     1
281
     0
  0
BLOCK_RECORD
  5
1B
330
1
100
AcDbSymbolTableRecord
100
AcDbBlockTableRecord
  2
*Paper_Space
340
1E
 70
     0
280
     1
281
     0
  0
BLOCK_RECORD
  5
23
330
1
100
AcDbSymbolTableRecord
100
AcDbBlockTableRecord
  2
*Paper_Space0
340
26
 70
     0
280
     1
281
     0
  0
ENDTAB
  0
ENDSEC
  0
SECTION
  2
BLOCKS
  0
BLOCK
  5
20
330
1F
100
AcDbEntity
  8
0
100
AcDbBlockBegin
  2
*Model_Space
 70
     0
 10
0.0
 20
0.0
 30
0.0
  3
*Model_Space
  1

  0
ENDBLK
  5
21
330
1F
100
AcDbEntity
  8
0
100
AcDbBlockEnd
  0
BLOCK
  5
1C
330
1B
100
AcDbEntity
 67
     1
  8
0
100
AcDbBlockBegin
  2
*Paper_Space
 70
     0
 10
0.0
 20
0.0
 30
0.0
  3
*Paper_Space
  1

  0
ENDBLK
  5
1D
330
1B
100
AcDbEntity
 67
     1
  8
0
100
AcDbBlockEnd
  0
BLOCK
  5
24
330
23
100
AcDbEntity
  8
0
100
AcDbBlockBegin
  2
*Paper_Space0
 70
     0
 10
0.0
 20
0.0
 30
0.0
  3
*Paper_Space0
  1

  0
ENDBLK
  5
25
330
23
100
AcDbEntity
  8
0
100
AcDbBlockEnd
  0
ENDSEC
  0
SECTION
  2
ENTITIES
  0
LWPOLYLINE
  5
76
330
1F
100
AcDbEntity
  8
0
  6
Continuous
 62
     7
370
    25
100
AcDbPolyline
 90
        3
 70
   128
 43
0.0
 10
95.7417199955
 20
351.3216829578
 10
96.0856683313
 20
351.122974483
 10
96.4098818439
 20
350.9355525874
  0
LWPOLYLINE
  5
77
330
1F
100
AcDbEntity
  8
0
  6
Continuous
 62
     7
370
    25
100
AcDbPolyline
 90
        3
 70
   128
 43
0.0
 10
95.7417199955
 20
350.0516829578
 10
96.0858605338
 20
349.8529151191
 10
96.4098818571
 20
349.6655554913
  0
LWPOLYLINE
  5
78
330
1F
100
AcDbEntity
  8
0
  6
Continuous
 62
     7
370
    25
100
AcDbPolyline
 90
        3
 70
   128
 43
0.0
 10
95.7417199955
 20
348.7816829578
 10
96.0860536882
 20
348.582855746
 10
96.4098818753
 20
348.3955584261
  0
LWPOLYLINE
  5
79
330
1F
100
AcDbEntity
  8
0
  6
Continuous
 62
     7
370
    25
100
AcDbPolyline
 90
        3
 70
   128
 43
0.0
 10
95.7417199955
 20
347.5116829578
 10
96.0862477947
 20
347.3127963637
 10
96.4098818984
 20
347.1255613919
  0
LWPOLYLINE
  5
7A
330
1F
100
AcDbEntity
  8
0
  6
Continuous
 62
     7
370
    25
100
AcDbPolyline
 90
        3
 70
   128
 43
0.0
 10
95.7417199955
 20
346.2416829578
 10
96.0864428533
 20
346.0427369723
 10
96.4098819264
 20
345.8555643888
  0
LWPOLYLINE
  5
7B
330
1F
100
AcDbEntity
  8
0
  6
Continuous
 62
     7
370
    25
100
AcDbPolyline
 90
        3
 70
   128
 43
0.0
 10
95.7417199955
 20
344.9716829578
 10
96.0866388642
 20
344.7726775717
 10
96.4098819591
 20
344.5855674169
  0
LWPOLYLINE
  5
7C
330
1F
100
AcDbEntity
  8
0
  6
Continuous
 62
     7
370
    25
100
AcDbPolyline
 90
        3
 70
   128
 43
0.0
 10
95.7417199955
 20
343.7016829578
 10
96.0868358275
 20
343.502618162
 10
96.4098819966
 20
343.3155704763
  0
LWPOLYLINE
  5
7D
330
1F
100
AcDbEntity
  8
0
  6
Continuous
 62
     7
370
    25
100
AcDbPolyline
 90
        3
 70
   128
 43
0.0
 10
95.7417199955
 20
342.4316829578
 10
96.0870337434
 20
342.2325587431
 10
96.4098820388
 20
342.0455735672
  0
LWPOLYLINE
  5
7E
330
1F
100
AcDbEntity
  8
0
  6
Continuous
 62
     7
370
    25
100
AcDbPolyline
 90
        3
 70
   128
 43
0.0
 10
95.7417199955
 20
341.1616829578
 10
96.0872326118
 20
340.9624993151
 10
96.4098820855
 20
340.7755766897
  0
LWPOLYLINE
  5
7F
330
1F
100
AcDbEntity
  8
0
  6
Continuous
 62
     7
370
    25
100
AcDbPolyline
 90
        3
 70
   128
 43
0.0
 10
95.7417199955
 20
339.8916829578
 10
96.087432433
 20
339.692439878
 10
96.4098821369
 20
339.5055798438
  0
LWPOLYLINE
  5
80
330
1F
100
AcDbEntity
  8
0
  6
Continuous
 62
     7
370
    25
100
AcDbPolyline
 90
        3
 70
   128
 43
0.0
 10
95.7417199955
 20
338.6216829578
 10
96.087633207
 20
338.4223804318
 10
96.4098821927
 20
338.2355830298
  0
LWPOLYLINE
  5
81
330
1F
100
AcDbEntity
  8
0
  6
Continuous
 62
     7
370
    25
100
AcDbPolyline
 90
        3
 70
   128
 43
0.0
 10
95.7417199955
 20
337.3516829578
 10
96.0878349341
 20
337.1523209764
 10
96.409882253
 20
336.9655862478
  0
LWPOLYLINE
  5
82
330
1F
100
AcDbEntity
  8
0
  6
Continuous
 62
     7
370
    25
100
AcDbPolyline
 90
        3
 70
   128
 43
0.0
 10
95.7417199955
 20
336.0816829578
 10
96.0880376142
 20
335.882261512
 10
96.4098823176
 20
335.6955894978
  0
LWPOLYLINE
  5
83
330
1F
100
AcDbEntity
  8
0
  6
Continuous
 62
     7
370
    25
100
AcDbPolyline
 90
        3
 70
   128
 43
0.0
 10
95.7417199955
 20
334.8116829578
 10
96.0882412475
 20
334.6122020385
 10
96.4098823865
 20
334.42559278
  0
LWPOLYLINE
  5
84
330
1F
100
AcDbEntity
  8
0
  6
Continuous
 62
     7
370
    25
100
AcDbPolyline
 90
        3
 70
   128
 43
0.0
 10
95.7417199955
 20
333.5416829578
 10
96.0884458341
 20
333.3421425558
 10
96.4098824597
 20
333.1555960946
  0
LWPOLYLINE
  5
85
330
1F
100
AcDbEntity
  8
0
  6
Continuous
 62
     7
370
    25
100
AcDbPolyline
 90
        3
 70
   128
 43
0.0
 10
95.7417199955
 20
332.2716829578
 10
96.0886513742
 20
332.0720830641
 10
96.409882537
 20
331.8855994417
  0
LWPOLYLINE
  5
86
330
1F
100
AcDbEntity
  8
0
  6
Continuous
 62
     7
370
    25
100
AcDbPolyline
 90
        3
 70
   128
 43
0.0
 10
116.3319691694
 20
351.5666638991
 10
116.6757819681
 20
351.7652667579
 10
117.0197481228
 20
351.9639857945
  0
LWPOLYLINE
  5
87
330
1F
100
AcDbEntity
  8
0
  6
Continuous
 62
     7
370
    25
100
AcDbPolyline
 90
        3
 70
   128
 43
0.0
 10
116.3319691694
 20
350.2966638991
 10
116.6757068915
 20
350.4952085849
 10
117.0197481228
 20
350.6939857945
  0
LWPOLYLINE
  5
88
330
1F
100
AcDbEntity
  8
0
  6
Continuous
 62
     7
370
    25
100
AcDbPolyline
 90
        3
 70
   128
 43
0.0
 10
116.3319691694
 20
349.0266638991
 10
116.6756308794
 20
349.225150402
 10
117.0197481228
 20
349.4239857945
  0
LWPOLYLINE
  5
89
330
1F
100
AcDbEntity
  8
0
  6
Continuous
 62
     7
370
    25
100
AcDbPolyline
 90
        3
 70
   128
 43
0.0
 10
116.3319691694
 20
347.7566638991
 10
116.6755539316
 20
347.9550922091
 10
117.0197481228
 20
348.1539857945
  0
LWPOLYLINE
  5
8A
330
1F
100
AcDbEntity
  8
0
  6
Continuous
 62
     7
370
    25
100
AcDbPolyline
 90
        3
 70
   128
 43
0.0
 10
116.3319691694
 20
346.4866638991
 10
116.6754760479
 20
346.6850340062
 10
117.0197481228
 20
346.8839857945
  0
LWPOLYLINE
  5
8B
330
1F
100
AcDbEntity
  8
0
  6
Continuous
 62
     7
370
    25
100
AcDbPolyline
 90
        3
 70
   128
 43
0.0
 10
116.3319691694
 20
345.2166638991
 10
116.6753972282
 20
345.4149757932
 10
117.0197481228
 20
345.6139857945
  0
LWPOLYLINE
  5
8C
330
1F
100
AcDbEntity
  8
0
  6
Continuous
 62
     7
370
    25
100
AcDbPolyline
 90
        3
 70
   128
 43
0.0
 10
116.3319691694
 20
343.9466638991
 10
116.6753174724
 20
344.1449175703
 10
117.0197481228
 20
344.3439857945
  0
LWPOLYLINE
  5
8D
330
1F
100
AcDbEntity
  8
0
  6
Continuous
 62
     7
370
    25
100
AcDbPolyline
 90
        3
 70
   128
 43
0.0
 10
116.3319691694
 20
342.6766638991
 10
116.6752367804
 20
342.8748593375
 10
117.0197481228
 20
343.0739857945
  0
LWPOLYLINE
  5
8E
330
1F
100
AcDbEntity
  8
0
  6
Continuous
 62
     7
370
    25
100
AcDbPolyline
 90
        3
 70
   128
 43
0.0
 10
116.3319691694
 20
341.4066638991
 10
116.6751551519
 20
341.6048010946
 10
117.0197481228
 20
341.8039857945
  0
LWPOLYLINE
  5
8F
330
1F
100
AcDbEntity
  8
0
  6
Continuous
 62
     7
370
    25
100
AcDbPolyline
 90
        3
 70
   128
 43
0.0
 10
116.3319691694
 20
340.1366638991
 10
116.6750725868
 20
340.3347428418
 10
117.0197481228
 20
340.5339857945
  0
LWPOLYLINE
  5
90
330
1F
100
AcDbEntity
  8
0
  6
Continuous
 62
     7
370
    25
100
AcDbPolyline
 90
        3
 70
   128
 43
0.0
 10
116.3319691694
 20
338.8666638991
 10
116.674989085
 20
339.0646845791
 10
117.0197481228
 20
339.2639857945
  0
LWPOLYLINE
  5
91
330
1F
100
AcDbEntity
  8
0
  6
Continuous
 62
     7
370
    25
100
AcDbPolyline
 90
        3
 70
   128
 43
0.0
 10
116.3319691694
 20
337.5966638991
 10
116.6749046463
 20
337.7946263063
 10
117.0197481228
 20
337.9939857945
  0
LWPOLYLINE
  5
92
330
1F
100
AcDbEntity
  8
0
  6
Continuous
 62
     7
370
    25
100
AcDbPolyline
 90
        3
 70
   128
 43
0.0
 10
116.3319691694
 20
336.3266638991
 10
116.6748192707
 20
336.5245680237
 10
117.0197481228
 20
336.7239857945
  0
LWPOLYLINE
  5
93
330
1F
100
AcDbEntity
  8
0
  6
Continuous
 62
     7
370
    25
100
AcDbPolyline
 90
        3
 70
   128
 43
0.0
 10
116.3319691694
 20
335.0566638991
 10
116.6747329579
 20
335.2545097311
 10
117.0197481228
 20
335.4539857945
  0
LWPOLYLINE
  5
94
330
1F
100
AcDbEntity
  8
0
  6
Continuous
 62
     7
370
    25
100
AcDbPolyline
 90
        3
 70
   128
 43
0.0
 10
116.3319691694
 20
333.7866638991
 10
116.6746457078
 20
333.9844514286
 10
117.0197481228
 20
334.1839857945
  0
LWPOLYLINE
  5
95
330
1F
100
AcDbEntity
  8
0
  6
Continuous
 62
     7
370
    25
100
AcDbPolyline
 90
        3
 70
   128
 43
0.0
 10
116.3319691694
 20
332.5166638991
 10
116.6745575202
 20
332.7143931161
 10
117.0197481228
 20
332.9139857945
  0
LWPOLYLINE
  5
96
330
1F
100
AcDbEntity
  8
0
  6
Continuous
 62
     7
370
    25
100
AcDbPolyline
 90
        3
 70
   128
 43
0.0
 10
116.3319691694
 20
331.2466638991
 10
116.6744683951
 20
331.4443347938
 10
117.0197481228
 20
331.6439857945
  0
LWPOLYLINE
  5
97
330
1F
100
AcDbEntity
  8
0
  6
Continuous
 62
     7
370
    25
100
AcDbPolyline
 90
        3
 70
   128
 43
0.0
 10
116.3319691694
 20
352.8366638991
 10
116.6758561093
 20
353.0353249208
 10
116.8181019109
 20
353.1174980278
  0
LWPOLYLINE
  5
98
330
1F
100
AcDbEntity
  8
0
  6
Continuous
 62
     7
370
    25
100
AcDbPolyline
 90
        3
 70
   128
 43
0.0
 10
95.7417199955
 20
352.5916829578
 10
96.0854770807
 20
352.3930338378
 10
96.4098818358
 20
352.2055497142
  0
LWPOLYLINE
  5
99
330
1F
100
AcDbEntity
  8
0
  6
Continuous
 62
     7
370
    25
100
AcDbPolyline
 90
        3
 70
   128
 43
0.0
 10
96.4156900755
 20
87.3418054333
 10
96.0735509572
 20
87.1440830202
 10
96.0722669324
 20
87.143341602
  0
LWPOLYLINE
  5
9A
330
1F
100
AcDbEntity
  8
0
  6
Continuous
 62
     7
370
    25
100
AcDbPolyline
 90
        3
 70
   128
 43
0.0
 10
96.4128721646
 20
351.8936852139
 10
96.0689168481
 20
351.6949677177
 10
95.7251004908
 20
351.4963666447
  0
LWPOLYLINE
  5
9B
330
1F
100
AcDbEntity
  8
0
  6
Continuous
 62
     7
370
    25
100
AcDbPolyline
 90
        3
 70
   128
 43
0.0
 10
96.4128721646
 20
350.6236852139
 10
96.0688459026
 20
350.4249095891
 10
95.7251004908
 20
350.2263666447
  0
LWPOLYLINE
  5
9C
330
1F
100
AcDbEntity
  8
0
  6
Continuous
 62
     7
370
    25
100
AcDbPolyline
 90
        3
 70
   128
 43
0.0
 10
96.4128721646
 20
349.3536852139
 10
96.0687758918
 20
349.1548514705
 10
95.7251004908
 20
348.9563666447
  0
LWPOLYLINE
  5
9D
330
1F
100
AcDbEntity
  8
0
  6
Continuous
 62
     7
370
    25
100
AcDbPolyline
 90
        3
 70
   128
 43
0.0
 10
96.4128721646
 20
348.0836852139
 10
96.0687068157
 20
347.884793362
 10
95.7251004908
 20
347.6863666447
  0
LWPOLYLINE
  5
9E
330
1F
100
AcDbEntity
  8
0
  6
Continuous
 62
     7
370
    25
100
AcDbPolyline
 90
        3
 70
   128
 43
0.0
 10
96.4128721646
 20
346.8136852139
 10
96.068638674
 20
346.6147352635
 10
95.7251004908
 20
346.4163666447
  0
LWPOLYLINE
  5
9F
330
1F
100
AcDbEntity
  8
0
  6
Continuous
 62
     7
370
    25
100
AcDbPolyline
 90
        3
 70
   128
 43
0.0
 10
96.4128721646
 20
345.5436852139
 10
96.0685714667
 20
345.3446771751
 10
95.7251004908
 20
345.1463666447
  0
LWPOLYLINE
  5
A0
330
1F
100
AcDbEntity
  8
0
  6
Continuous
 62
     7
370
    25
100
AcDbPolyline
 90
        3
 70
   128
 43
0.0
 10
96.4128721646
 20
344.2736852139
 10
96.0685051934
 20
344.0746190968
 10
95.7251004908
 20
343.8763666447
  0
LWPOLYLINE
  5
A1
330
1F
100
AcDbEntity
  8
0
  6
Continuous
 62
     7
370
    25
100
AcDbPolyline
 90
        3
 70
   128
 43
0.0
 10
96.4128721646
 20
343.0036852139
 10
96.0684398543
 20
342.8045610285
 10
95.7251004908
 20
342.6063666447
  0
LWPOLYLINE
  5
A2
330
1F
100
AcDbEntity
  8
0
  6
Continuous
 62
     7
370
    25
100
AcDbPolyline
 90
        3
 70
   128
 43
0.0
 10
96.4128721646
 20
341.7336852139
 10
96.0683754489
 20
341.5345029704
 10
95.7251004908
 20
341.3363666447
  0
LWPOLYLINE
  5
A3
330
1F
100
AcDbEntity
  8
0
  6
Continuous
 62
     7
370
    25
100
AcDbPolyline
 90
        3
 70
   128
 43
0.0
 10
96.4128721646
 20
340.4636852139
 10
96.0683119773
 20
340.2644449223
 10
95.7251004908
 20
340.0663666447
  0
LWPOLYLINE
  5
A4
330
1F
100
AcDbEntity
  8
0
  6
Continuous
 62
     7
370
    25
100
AcDbPolyline
 90
        3
 70
   128
 43
0.0
 10
96.4128721646
 20
339.1936852139
 10
96.0682494392
 20
338.9943868843
 10
95.7251004908
 20
338.7963666447
  0
LWPOLYLINE
  5
A5
330
1F
100
AcDbEntity
  8
0
  6
Continuous
 62
     7
370
    25
100
AcDbPolyline
 90
        3
 70
   128
 43
0.0
 10
96.4128721646
 20
337.9236852139
 10
96.0681878346
 20
337.7243288564
 10
95.7251004908
 20
337.5263666447
  0
LWPOLYLINE
  5
A6
330
1F
100
AcDbEntity
  8
0
  6
Continuous
 62
     7
370
    25
100
AcDbPolyline
 90
        3
 70
   128
 43
0.0
 10
96.4128721646
 20
336.6536852139
 10
96.0681271632
 20
336.4542708386
 10
95.7251004908
 20
336.2563666447
  0
LWPOLYLINE
  5
A7
330
1F
100
AcDbEntity
  8
0
  6
Continuous
 62
     7
370
    25
100
AcDbPolyline
 90
        3
 70
   128
 43
0.0
 10
96.4128721646
 20
335.3836852139
 10
96.0680674249
 20
335.1842128309
 10
95.7251004908
 20
334.9863666447
  0
LWPOLYLINE
  5
A8
330
1F
100
AcDbEntity
  8
0
  6
Continuous
 62
     7
370
    25
100
AcDbPolyline
 90
        3
 70
   128
 43
0.0
 10
96.4128721646
 20
334.1136852139
 10
96.0680086196
 20
333.9141548334
 10
95.7251004908
 20
333.7163666447
  0
LWPOLYLINE
  5
A9
330
1F
100
AcDbEntity
  8
0
  6
Continuous
 62
     7
370
    25
100
AcDbPolyline
 90
        3
 70
   128
 43
0.0
 10
96.4128721646
 20
332.8436852139
 10
96.0679507471
 20
332.644096846
 10
95.7251004908
 20
332.4463666447
  0
LWPOLYLINE
  5
AA
330
1F
100
AcDbEntity
  8
0
  6
Continuous
 62
     7
370
    25
100
AcDbPolyline
 90
        3
 70
   128
 43
0.0
 10
96.4128721646
 20
331.5736852139
 10
96.0678938073
 20
331.3740388687
 10
95.7251004908
 20
331.1763666447
  0
LWPOLYLINE
  5
AB
330
1F
100
AcDbEntity
  8
0
  6
Continuous
 62
     7
370
    25
100
AcDbPolyline
 90
        3
 70
   128
 43
0.0
 10
116.9713447093
 20
350.8762275145
 10
116.6289406181
 20
351.0747338323
 10
116.2859590064
 20
351.2733610392
  0
LWPOLYLINE
  5
AC
330
1F
100
AcDbEntity
  8
0
  6
Continuous
 62
     7
370
    25
100
AcDbPolyline
 90
        3
 70
   128
 43
0.0
 10
116.9713447093
 20
349.6062275145
 10
116.6292482568
 20
349.804673415
 10
116.2859590064
 20
350.0033610392
  0
LWPOLYLINE
  5
AD
330
1F
100
AcDbEntity
  8
0
  6
Continuous
 62
     7
370
    25
100
AcDbPolyline
 90
        3
 70
   128
 43
0.0
 10
116.9713447093
 20
348.3362275145
 10
116.6295549313
 20
348.534613006
 10
116.2859590064
 20
348.7333610392
  0
LWPOLYLINE
  5
AE
330
1F
100
AcDbEntity
  8
0
  6
Continuous
 62
     7
370
    25
100
AcDbPolyline
 90
        3
 70
   128
 43
0.0
 10
116.9713447093
 20
347.0662275145
 10
116.6298606417
 20
347.2645526053
 10
116.2859590064
 20
347.4633610392
  0
LWPOLYLINE
  5
AF
330
1F
100
AcDbEntity
  8
0
  6
Continuous
 62
     7
370
    25
100
AcDbPolyline
 90
        3
 70
   128
 43
0.0
 10
116.9713447093
 20
345.7962275145
 10
116.6301653882
 20
345.9944922129
 10
116.2859590064
 20
346.1933610392
  0
LWPOLYLINE
  5
B0
330
1F
100
AcDbEntity
  8
0
  6
Continuous
 62
     7
370
    25
100
AcDbPolyline
 90
        3
 70
   128
 43
0.0
 10
116.9713447093
 20
344.5262275145
 10
116.6304691708
 20
344.7244318289
 10
116.2859590064
 20
344.9233610392
  0
LWPOLYLINE
  5
B1
330
1F
100
AcDbEntity
  8
0
  6
Continuous
 62
     7
370
    25
100
AcDbPolyline
 90
        3
 70
   128
 43
0.0
 10
116.9713447093
 20
343.2562275145
 10
116.6307719897
 20
343.4543714532
 10
116.2859590064
 20
343.6533610392
  0
LWPOLYLINE
  5
B2
330
1F
100
AcDbEntity
  8
0
  6
Continuous
 62
     7
370
    25
100
AcDbPolyline
 90
        3
 70
   128
 43
0.0
 10
116.9713447093
 20
341.9862275145
 10
116.6310738448
 20
342.1843110859
 10
116.2859590064
 20
342.3833610392
  0
LWPOLYLINE
  5
B3
330
1F
100
AcDbEntity
  8
0
  6
Continuous
 62
     7
370
    25
100
AcDbPolyline
 90
        3
 70
   128
 43
0.0
 10
116.9713447093
 20
340.7162275145
 10
116.6313747363
 20
340.9142507269
 10
116.2859590064
 20
341.1133610392
  0
LWPOLYLINE
  5
B4
330
1F
100
AcDbEntity
  8
0
  6
Continuous
 62
     7
370
    25
100
AcDbPolyline
 90
        3
 70
   128
 43
0.0
 10
116.9713447093
 20
339.4462275145
 10
116.6316746643
 20
339.6441903762
 10
116.2859590064
 20
339.8433610392
  0
LWPOLYLINE
  5
B5
330
1F
100
AcDbEntity
  8
0
  6
Continuous
 62
     7
370
    25
100
AcDbPolyline
 90
        3
 70
   128
 43
0.0
 10
116.9713447093
 20
338.1762275145
 10
116.6319736289
 20
338.374130034
 10
116.2859590064
 20
338.5733610392
  0
LWPOLYLINE
  5
B6
330
1F
100
AcDbEntity
  8
0
  6
Continuous
 62
     7
370
    25
100
AcDbPolyline
 90
        3
 70
   128
 43
0.0
 10
116.9713447093
 20
336.9062275145
 10
116.6322716302
 20
337.1040697001
 10
116.2859590064
 20
337.3033610392
  0
LWPOLYLINE
  5
B7
330
1F
100
AcDbEntity
  8
0
  6
Continuous
 62
     7
370
    25
100
AcDbPolyline
 90
        3
 70
   128
 43
0.0
 10
116.9713447093
 20
335.6362275145
 10
116.6325686681
 20
335.8340093746
 10
116.2859590064
 20
336.0333610392
  0
LWPOLYLINE
  5
B8
330
1F
100
AcDbEntity
  8
0
  6
Continuous
 62
     7
370
    25
100
AcDbPolyline
 90
        3
 70
   128
 43
0.0
 10
116.9713447093
 20
334.3662275145
 10
116.632864743
 20
334.5639490575
 10
116.2859590064
 20
334.7633610392
  0
LWPOLYLINE
  5
B9
330
1F
100
AcDbEntity
  8
0
  6
Continuous
 62
     7
370
    25
100
AcDbPolyline
 90
        3
 70
   128
 43
0.0
 10
116.9713447093
 20
333.0962275145
 10
116.6331598547
 20
333.2938887487
 10
116.2859590064
 20
333.4933610392
  0
LWPOLYLINE
  5
BA
330
1F
100
AcDbEntity
  8
0
  6
Continuous
 62
     7
370
    25
100
AcDbPolyline
 90
        3
 70
   128
 43
0.0
 10
116.9713447093
 20
331.8262275145
 10
116.6334540035
 20
332.0238284484
 10
116.2859590064
 20
332.2233610392
  0
LWPOLYLINE
  5
BB
330
1F
100
AcDbEntity
  8
0
  6
Continuous
 62
     7
370
    25
100
AcDbPolyline
 90
        3
 70
   128
 43
0.0
 10
116.9713447093
 20
330.5562275145
 10
116.6337471894
 20
330.7537681565
 10
116.2859590064
 20
330.9533610392
  0
LWPOLYLINE
  5
BC
330
1F
100
AcDbEntity
  8
0
  6
Continuous
 62
     7
370
    25
100
AcDbPolyline
 90
        3
 70
   128
 43
0.0
 10
116.9713447093
 20
352.1462275145
 10
116.6286320152
 20
352.3447942579
 10
116.2859590064
 20
352.5433610392
  0
LWPOLYLINE
  5
BD
330
1F
100
AcDbEntity
  8
0
  6
Continuous
 62
     7
370
    25
100
AcDbPolyline
 90
        3
 70
   128
 43
0.0
 10
96.4128721646
 20
353.1636852139
 10
96.0689887285
 20
352.9650258563
 10
95.7251004908
 20
352.7663666447
  0
LWPOLYLINE
  5
BE
330
1F
100
AcDbEntity
  8
0
  6
Continuous
 62
     7
370
    25
100
AcDbPolyline
 90
        3
 70
   128
 43
0.0
 10
116.5307505452
 20
87.143341602
 10
116.6215823464
 20
87.1955545096
 10
116.9590762311
 20
87.3932410427
  0
LWPOLYLINE
  5
BF
330
1F
100
AcDbEntity
  8
0
  6
Continuous
 62
     7
370
    25
100
AcDbPolyline
 90
        3
 70
   128
 43
0.0
 10
95.7275883591
 20
88.0436155392
 10
96.0700140541
 20
87.8458966801
 10
96.4098866613
 20
87.6494820967
  0
LINE
  5
C0
330
1F
100
AcDbEntity
  8
0
  6
Continuous
 62
     7
370
    25
100
AcDbLine
 10
117.0224741662
 20
351.9682984181
 30
0.0
 11
117.0224741662
 21
352.1272405375
 31
0.0
  0
LINE
  5
C1
330
1F
100
AcDbEntity
  8
0
  6
Continuous
 62
     7
370
    25
100
AcDbLine
 10
117.0224741662
 20
350.6982984181
 30
0.0
 11
117.0224741662
 21
350.8572405375
 31
0.0
  0
LINE
  5
C2
330
1F
100
AcDbEntity
  8
0
  6
Continuous
 62
     7
370
    25
100
AcDbLine
 10
117.0224741662
 20
349.4282984181
 30
0.0
 11
117.0224741662
 21
349.5872405375
 31
0.0
  0
LINE
  5
C3
330
1F
100
AcDbEntity
  8
0
  6
Continuous
 62
     7
370
    25
100
AcDbLine
 10
117.0224741662
 20
348.1582984181
 30
0.0
 11
117.0224741662
 21
348.3172405375
 31
0.0
  0
LINE
  5
C4
330
1F
100
AcDbEntity
  8
0
  6
Continuous
 62
     7
370
    25
100
AcDbLine
 10
117.0224741662
 20
346.8882984181
 30
0.0
 11
117.0224741662
 21
347.0472405375
 31
0.0
  0
LINE
  5
C5
330
1F
100
AcDbEntity
  8
0
  6
Continuous
 62
     7
370
    25
100
AcDbLine
 10
117.0224741662
 20
345.6182984181
 30
0.0
 11
117.0224741662
 21
345.7772405375
 31
0.0
  0
LINE
  5
C6
330
1F
100
AcDbEntity
  8
0
  6
Continuous
 62
     7
370
    25
100
AcDbLine
 10
117.0224741662
 20
344.3482984181
 30
0.0
 11
117.0224741662
 21
344.5072405375
 31
0.0
  0
LINE
  5
C7
330
1F
100
AcDbEntity
  8
0
  6
Continuous
 62
     7
370
    25
100
AcDbLine
 10
117.0224741662
 20
343.0782984181
 30
0.0
 11
117.0224741662
 21
343.2372405375
 31
0.0
  0
LINE
  5
C8
330
1F
100
AcDbEntity
  8
0
  6
Continuous
 62
     7
370
    25
100
AcDbLine
 10
117.0224741662
 20
341.8082984181
 30
0.0
 11
117.0224741662
 21
341.9672405375
 31
0.0
  0
LINE
  5
C9
330
1F
100
AcDbEntity
  8
0
  6
Continuous
 62
     7
370
    25
100
AcDbLine
 10
117.0224741662
 20
340.5382984181
 30
0.0
 11
117.0224741662
 21
340.6972405375
 31
0.0
  0
LINE
  5
CA
330
1F
100
AcDbEntity
  8
0
  6
Continuous
 62
     7
370
    25
100
AcDbLine
 10
117.0224741662
 20
339.2682984181
 30
0.0
 11
117.0224741662
 21
339.4272405375
 31
0.0
  0
LINE
  5
CB
330
1F
100
AcDbEntity
  8
0
  6
Continuous
 62
     7
370
    25
100
AcDbLine
 10
117.0224741662
 20
337.9982984181
 30
0.0
 11
117.0224741662
 21
338.1572405375
 31
0.0
  0
LINE
  5
CC
330
1F
100
AcDbEntity
  8
0
  6
Continuous
 62
     7
370
    25
100
AcDbLine
 10
117.0224741662
 20
336.7282984181
 30
0.0
 11
117.0224741662
 21
336.8872405375
 31
0.0
  0
LINE
  5
CD
330
1F
100
AcDbEntity
  8
0
  6
Continuous
 62
     7
370
    25
100
AcDbLine
 10
117.0224741662
 20
335.4582984181
 30
0.0
 11
117.0224741662
 21
335.6172405375
 31
0.0
  0
LINE
  5
CE
330
1F
100
AcDbEntity
  8
0
  6
Continuous
 62
     7
370
    25
100
AcDbLine
 10
117.0224741662
 20
334.1882984181
 30
0.0
 11
117.0224741662
 21
334.3472405375
 31
0.0
  0
LINE
  5
CF
330
1F
100
AcDbEntity
  8
0
  6
Continuous
 62
     7
370
    25
100
AcDbLine
 10
117.0224741662
 20
332.9182984181
 30
0.0
 11
117.0224741662
 21
333.0772405375
 31
0.0
  0
LINE
  5
D0
330
1F
100
AcDbEntity
  8
0
  6
Continuous
 62
     7
370
    25
100
AcDbLine
 10
117.0224741662
 20
331.6482984181
 30
0.0
 11
117.0224741662
 21
331.8072405375
 31
0.0
  0
LINE
  5
D1
330
1F
100
AcDbEntity
  8
0
  6
Continuous
 62
     7
370
    25
100
AcDbLine
 10
117.0224741662
 20
87.4145915985
 30
0.0
 11
117.0224741662
 21
330.5372405375
 31
0.0
  0
LINE
  5
D2
330
1F
100
AcDbEntity
  8
0
  6
Continuous
 62
     7
370
    25
100
AcDbLine
 10
95.7224741662
 20
331.1722159535
 30
0.0
 11
95.7224741662
 21
88.0493787156
 31
0.0
  0
LINE
  5
D3
330
1F
100
AcDbEntity
  8
0
  6
Continuous
 62
     7
370
    25
100
AcDbLine
 10
95.7224741662
 20
332.4422159535
 30
0.0
 11
95.7224741662
 21
332.2835452402
 31
0.0
  0
LINE
  5
D4
330
1F
100
AcDbEntity
  8
0
  6
Continuous
 62
     7
370
    25
100
AcDbLine
 10
95.7224741662
 20
333.7122159535
 30
0.0
 11
95.7224741662
 21
333.5535452402
 31
0.0
  0
LINE
  5
D5
330
1F
100
AcDbEntity
  8
0
  6
Continuous
 62
     7
370
    25
100
AcDbLine
 10
95.7224741662
 20
334.9822159535
 30
0.0
 11
95.7224741662
 21
334.8235452402
 31
0.0
  0
LINE
  5
D6
330
1F
100
AcDbEntity
  8
0
  6
Continuous
 62
     7
370
    25
100
AcDbLine
 10
95.7224741662
 20
336.2522159535
 30
0.0
 11
95.7224741662
 21
336.0935452402
 31
0.0
  0
LINE
  5
D7
330
1F
100
AcDbEntity
  8
0
  6
Continuous
 62
     7
370
    25
100
AcDbLine
 10
95.7224741662
 20
337.5222159535
 30
0.0
 11
95.7224741662
 21
337.3635452402
 31
0.0
  0
LINE
  5
D8
330
1F
100
AcDbEntity
  8
0
  6
Continuous
 62
     7
370
    25
100
AcDbLine
 10
95.7224741662
 20
338.7922159535
 30
0.0
 11
95.7224741662
 21
338.6335452402
 31
0.0
  0
LINE
  5
D9
330
1F
100
AcDbEntity
  8
0
  6
Continuous
 62
     7
370
    25
100
AcDbLine
 10
95.7224741662
 20
340.0622159535
 30
0.0
 11
95.7224741662
 21
339.9035452402
 31
0.0
  0
LINE
  5
DA
330
1F
100
AcDbEntity
  8
0
  6
Continuous
 62
     7
370
    25
100
AcDbLine
 10
95.7224741662
 20
341.3322159535
 30
0.0
 11
95.7224741662
 21
341.1735452402
 31
0.0
  0
LINE
  5
DB
330
1F
100
AcDbEntity
  8
0
  6
Continuous
 62
     7
370
    25
100
AcDbLine
 10
95.7224741662
 20
342.6022159535
 30
0.0
 11
95.7224741662
 21
342.4435452402
 31
0.0
  0
LINE
  5
DC
330
1F
100
AcDbEntity
  8
0
  6
Continuous
 62
     7
370
    25
100
AcDbLine
 10
95.7224741662
 20
343.8722159535
 30
0.0
 11
95.7224741662
 21
343.7135452402
 31
0.0
  0
LINE
  5
DD
330
1F
100
AcDbEntity
  8
0
  6
Continuous
 62
     7
370
    25
100
AcDbLine
 10
95.7224741662
 20
345.1422159535
 30
0.0
 11
95.7224741662
 21
344.9835452402
 31
0.0
  0
LINE
  5
DE
330
1F
100
AcDbEntity
  8
0
  6
Continuous
 62
     7
370
    25
100
AcDbLine
 10
95.7224741662
 20
346.4122159535
 30
0.0
 11
95.7224741662
 21
346.2535452402
 31
0.0
  0
LINE
  5
DF
330
1F
100
AcDbEntity
  8
0
  6
Continuous
 62
     7
370
    25
100
AcDbLine
 10
95.7224741662
 20
347.6822159535
 30
0.0
 11
95.7224741662
 21
347.5235452402
 31
0.0
  0
LINE
  5
E0
330
1F
100
AcDbEntity
  8
0
  6
Continuous
 62
     7
370
    25
100
AcDbLine
 10
95.7224741662
 20
348.9522159535
 30
0.0
 11
95.7224741662
 21
348.7935452402
 31
0.0
  0
LINE
  5
E1
330
1F
100
AcDbEntity
  8
0
  6
Continuous
 62
     7
370
    25
100
AcDbLine
 10
95.7224741662
 20
350.2222159535
 30
0.0
 11
95.7224741662
 21
350.0635452402
 31
0.0
  0
LINE
  5
E2
330
1F
100
AcDbEntity
  8
0
  6
Continuous
 62
     7
370
    25
100
AcDbLine
 10
95.7224741662
 20
351.4922159535
 30
0.0
 11
95.7224741662
 21
351.3335452402
 31
0.0
  0
LINE
  5
E3
330
1F
100
AcDbEntity
  8
0
  6
Continuous
 62
     7
370
    25
100
AcDbLine
 10
95.7224741662
 20
352.7622159535
 30
0.0
 11
95.7224741662
 21
352.6035452402
 31
0.0
  0
LWPOLYLINE
  5
E4
330
1F
100
AcDbEntity
  8
0
  6
Continuous
 62
     7
370
    25
100
AcDbPolyline
 90
        3
 70
   128
 43
0.0
 10
96.4098852252
 20
87.6525583084
 10
96.4099589067
 20
87.4947210142
 10
96.4098867912
 20
87.3384517116
  0
LWPOLYLINE
  5
E5
330
1F
100
AcDbEntity
  8
0
  6
Continuous
 62
     7
370
    25
100
AcDbPolyline
 90
        3
 70
   128
 43
0.0
 10
96.4098818326
 20
352.2064604243
 10
96.4098823749
 20
352.0476530746
 10
96.4098818429
 20
351.8919575789
  0
LWPOLYLINE
  5
E6
330
1F
100
AcDbEntity
  8
0
  6
Continuous
 62
     7
370
    25
100
AcDbPolyline
 90
        3
 70
   128
 43
0.0
 10
96.4098818326
 20
350.9364604243
 10
96.4098838094
 20
350.7775957143
 10
96.40988187
 20
350.6219574455
  0
LWPOLYLINE
  5
E7
330
1F
100
AcDbEntity
  8
0
  6
Continuous
 62
     7
370
    25
100
AcDbPolyline
 90
        3
 70
   128
 43
0.0
 10
96.4098818326
 20
349.6664604243
 10
96.4098861363
 20
349.5075383436
 10
96.409881914
 20
349.3519573174
  0
LWPOLYLINE
  5
E8
330
1F
100
AcDbEntity
  8
0
  6
Continuous
 62
     7
370
    25
100
AcDbPolyline
 90
        3
 70
   128
 43
0.0
 10
96.4098818326
 20
348.3964604243
 10
96.4098893559
 20
348.2374809623
 10
96.4098819749
 20
348.0819571945
  0
LWPOLYLINE
  5
E9
330
1F
100
AcDbEntity
  8
0
  6
Continuous
 62
     7
370
    25
100
AcDbPolyline
 90
        3
 70
   128
 43
0.0
 10
96.4098818326
 20
347.1264604243
 10
96.4098934682
 20
346.9674235706
 10
96.4098820527
 20
346.8119570769
  0
LWPOLYLINE
  5
EA
330
1F
100
AcDbEntity
  8
0
  6
Continuous
 62
     7
370
    25
100
AcDbPolyline
 90
        3
 70
   128
 43
0.0
 10
96.4098818326
 20
345.8564604243
 10
96.4098984735
 20
345.6973661683
 10
96.4098821474
 20
345.5419569645
  0
LWPOLYLINE
  5
EB
330
1F
100
AcDbEntity
  8
0
  6
Continuous
 62
     7
370
    25
100
AcDbPolyline
 90
        3
 70
   128
 43
0.0
 10
96.4098818326
 20
344.5864604243
 10
96.4099043718
 20
344.4273087556
 10
96.4098822592
 20
344.2719568574
  0
LWPOLYLINE
  5
EC
330
1F
100
AcDbEntity
  8
0
  6
Continuous
 62
     7
370
    25
100
AcDbPolyline
 90
        3
 70
   128
 43
0.0
 10
96.4098818326
 20
343.3164604243
 10
96.4099111634
 20
343.1572513324
 10
96.4098823879
 20
343.0019567556
  0
LWPOLYLINE
  5
ED
330
1F
100
AcDbEntity
  8
0
  6
Continuous
 62
     7
370
    25
100
AcDbPolyline
 90
        3
 70
   128
 43
0.0
 10
96.4098818326
 20
342.0464604243
 10
96.4099188484
 20
341.8871938988
 10
96.4098825336
 20
341.7319566592
  0
LWPOLYLINE
  5
EE
330
1F
100
AcDbEntity
  8
0
  6
Continuous
 62
     7
370
    25
100
AcDbPolyline
 90
        3
 70
   128
 43
0.0
 10
96.4098818326
 20
340.7764604243
 10
96.4099274269
 20
340.6171364546
 10
96.4098826963
 20
340.461956568
  0
LWPOLYLINE
  5
EF
330
1F
100
AcDbEntity
  8
0
  6
Continuous
 62
     7
370
    25
100
AcDbPolyline
 90
        3
 70
   128
 43
0.0
 10
96.4098818326
 20
339.5064604243
 10
96.4099368992
 20
339.347079
 10
96.4098828761
 20
339.1919564822
  0
LWPOLYLINE
  5
F0
330
1F
100
AcDbEntity
  8
0
  6
Continuous
 62
     7
370
    25
100
AcDbPolyline
 90
        3
 70
   128
 43
0.0
 10
96.4098818326
 20
338.2364604243
 10
96.4099472653
 20
338.077021535
 10
96.4098830729
 20
337.9219564018
  0
LWPOLYLINE
  5
F1
330
1F
100
AcDbEntity
  8
0
  6
Continuous
 62
     7
370
    25
100
AcDbPolyline
 90
        3
 70
   128
 43
0.0
 10
96.4098818326
 20
336.9664604243
 10
96.4099585254
 20
336.8069640595
 10
96.4098832868
 20
336.6519563267
  0
LWPOLYLINE
  5
F2
330
1F
100
AcDbEntity
  8
0
  6
Continuous
 62
     7
370
    25
100
AcDbPolyline
 90
        3
 70
   128
 43
0.0
 10
96.4098818326
 20
335.6964604243
 10
96.4099706797
 20
335.5369065736
 10
96.4098835178
 20
335.3819562571
  0
LWPOLYLINE
  5
F3
330
1F
100
AcDbEntity
  8
0
  6
Continuous
 62
     7
370
    25
100
AcDbPolyline
 90
        3
 70
   128
 43
0.0
 10
96.4098818326
 20
334.4264604243
 10
96.4099837284
 20
334.2668490772
 10
96.409883766
 20
334.1119561929
  0
LWPOLYLINE
  5
F4
330
1F
100
AcDbEntity
  8
0
  6
Continuous
 62
     7
370
    25
100
AcDbPolyline
 90
        3
 70
   128
 43
0.0
 10
96.4098818326
 20
333.1564604243
 10
96.4099976715
 20
332.9967915704
 10
96.4098840313
 20
332.8419561341
  0
LWPOLYLINE
  5
F5
330
1F
100
AcDbEntity
  8
0
  6
Continuous
 62
     7
370
    25
100
AcDbPolyline
 90
        3
 70
   128
 43
0.0
 10
96.4098818326
 20
331.8864604243
 10
96.4100125093
 20
331.7267340532
 10
96.4098843138
 20
331.5719560808
  0
LWPOLYLINE
  5
F6
330
1F
100
AcDbEntity
  8
0
  6
Continuous
 62
     7
370
    25
100
AcDbPolyline
 90
        3
 70
   128
 43
0.0
 10
116.3350665003
 20
351.2539607088
 10
116.3350659625
 20
351.4126533592
 10
116.3350664901
 20
351.568453061
  0
LWPOLYLINE
  5
F7
330
1F
100
AcDbEntity
  8
0
  6
Continuous
 62
     7
370
    25
100
AcDbPolyline
 90
        3
 70
   128
 43
0.0
 10
116.3350665003
 20
349.9839607088
 10
116.3350645324
 20
350.142595999
 10
116.335066463
 20
350.298452912
  0
LWPOLYLINE
  5
F8
330
1F
100
AcDbEntity
  8
0
  6
Continuous
 62
     7
370
    25
100
AcDbPolyline
 90
        3
 70
   128
 43
0.0
 10
116.3350665003
 20
348.7139607088
 10
116.3350622098
 20
348.8725386283
 10
116.335066419
 20
349.0284527579
  0
LWPOLYLINE
  5
F9
330
1F
100
AcDbEntity
  8
0
  6
Continuous
 62
     7
370
    25
100
AcDbPolyline
 90
        3
 70
   128
 43
0.0
 10
116.3350665003
 20
347.4439607088
 10
116.3350589947
 20
347.6024812471
 10
116.3350663582
 20
347.7584525988
  0
LWPOLYLINE
  5
FA
330
1F
100
AcDbEntity
  8
0
  6
Continuous
 62
     7
370
    25
100
AcDbPolyline
 90
        3
 70
   128
 43
0.0
 10
116.3350665003
 20
346.1739607088
 10
116.3350548868
 20
346.3324238554
 10
116.3350662806
 20
346.4884524347
  0
LWPOLYLINE
  5
FB
330
1F
100
AcDbEntity
  8
0
  6
Continuous
 62
     7
370
    25
100
AcDbPolyline
 90
        3
 70
   128
 43
0.0
 10
116.3350665003
 20
344.9039607088
 10
116.335049886
 20
345.0623664532
 10
116.3350661861
 20
345.2184522657
  0
LWPOLYLINE
  5
FC
330
1F
100
AcDbEntity
  8
0
  6
Continuous
 62
     7
370
    25
100
AcDbPolyline
 90
        3
 70
   128
 43
0.0
 10
116.3350665003
 20
343.6339607088
 10
116.3350439921
 20
343.7923090405
 10
116.3350660748
 20
343.9484520916
  0
LWPOLYLINE
  5
FD
330
1F
100
AcDbEntity
  8
0
  6
Continuous
 62
     7
370
    25
100
AcDbPolyline
 90
        3
 70
   128
 43
0.0
 10
116.3350665003
 20
342.3639607088
 10
116.3350372049
 20
342.5222516174
 10
116.3350659466
 20
342.6784519126
  0
LWPOLYLINE
  5
FE
330
1F
100
AcDbEntity
  8
0
  6
Continuous
 62
     7
370
    25
100
AcDbPolyline
 90
        3
 70
   128
 43
0.0
 10
116.3350665003
 20
341.0939607088
 10
116.3350295244
 20
341.2521941837
 10
116.3350658017
 20
341.4084517287
  0
LWPOLYLINE
  5
FF
330
1F
100
AcDbEntity
  8
0
  6
Continuous
 62
     7
370
    25
100
AcDbPolyline
 90
        3
 70
   128
 43
0.0
 10
116.3350665003
 20
339.8239607088
 10
116.3350209503
 20
339.9821367397
 10
116.3350656399
 20
340.1384515398
  0
LWPOLYLINE
  5
100
330
1F
100
AcDbEntity
  8
0
  6
Continuous
 62
     7
370
    25
100
AcDbPolyline
 90
        3
 70
   128
 43
0.0
 10
116.3350665003
 20
338.5539607088
 10
116.3350114825
 20
338.7120792851
 10
116.3350654614
 20
338.868451346
  0
LWPOLYLINE
  5
101
330
1F
100
AcDbEntity
  8
0
  6
Continuous
 62
     7
370
    25
100
AcDbPolyline
 90
        3
 70
   128
 43
0.0
 10
116.3350665003
 20
337.2839607088
 10
116.3350011208
 20
337.4420218201
 10
116.3350652662
 20
337.5984511472
  0
LWPOLYLINE
  5
102
330
1F
100
AcDbEntity
  8
0
  6
Continuous
 62
     7
370
    25
100
AcDbPolyline
 90
        3
 70
   128
 43
0.0
 10
116.3350665003
 20
336.0139607088
 10
116.3349898651
 20
336.1719643447
 10
116.3350650541
 20
336.3284509436
  0
LWPOLYLINE
  5
103
330
1F
100
AcDbEntity
  8
0
  6
Continuous
 62
     7
370
    25
100
AcDbPolyline
 90
        3
 70
   128
 43
0.0
 10
116.3350665003
 20
334.7439607088
 10
116.3349777152
 20
334.9019068588
 10
116.3350648253
 20
335.058450735
  0
LWPOLYLINE
  5
104
330
1F
100
AcDbEntity
  8
0
  6
Continuous
 62
     7
370
    25
100
AcDbPolyline
 90
        3
 70
   128
 43
0.0
 10
116.3350665003
 20
333.4739607088
 10
116.334964671
 20
333.6318493625
 10
116.3350645798
 20
333.7884505216
  0
LWPOLYLINE
  5
105
330
1F
100
AcDbEntity
  8
0
  6
Continuous
 62
     7
370
    25
100
AcDbPolyline
 90
        3
 70
   128
 43
0.0
 10
116.3350665003
 20
332.2039607088
 10
116.3349507323
 20
332.3617918557
 10
116.3350643176
 20
332.5184503032
  0
LWPOLYLINE
  5
106
330
1F
100
AcDbEntity
  8
0
  6
Continuous
 62
     7
370
    25
100
AcDbPolyline
 90
        3
 70
   128
 43
0.0
 10
116.3350665003
 20
330.9339607088
 10
116.3349358989
 20
331.0917343386
 10
116.3350640386
 20
331.24845008
  0
LINE
  5
107
330
1F
100
AcDbEntity
  8
0
  6
Continuous
 62
     7
370
    25
100
AcDbLine
 10
116.3350665003
 20
352.5239607088
 30
0.0
 11
116.3350665003
 21
352.838453205
 31
0.0
  0
LINE
  5
108
330
1F
100
AcDbEntity
  8
0
  6
Continuous
 62
     7
370
    25
100
AcDbLine
 10
90.6552072292
 20
64.143341602
 30
0.0
 11
90.335066505
 21
63.588841602
 31
0.0
  0
LINE
  5
109
330
1F
100
AcDbEntity
  8
0
  6
Continuous
 62
     7
370
    25
100
AcDbLine
 10
90.335066505
 20
58.697841602
 30
0.0
 11
90.6552072292
 21
58.143341602
 31
0.0
  0
LINE
  5
10A
330
1F
100
AcDbEntity
  8
0
  6
Continuous
 62
     7
370
    25
100
AcDbLine
 10
90.6552072292
 20
58.143341602
 30
0.0
 11
91.3724741662
 21
58.143341602
 31
0.0
  0
LINE
  5
10B
330
1F
100
AcDbEntity
  8
0
  6
Continuous
 62
     7
370
    25
100
AcDbLine
 10
91.3724741662
 20
64.143341602
 30
0.0
 11
90.6552072292
 21
64.143341602
 31
0.0
  0
LINE
  5
10C
330
1F
100
AcDbEntity
  8
0
  6
Continuous
 62
     7
370
    25
100
AcDbLine
 10
121.3724741662
 20
86.143341602
 30
0.0
 11
120.3724741662
 21
87.143341602
 31
0.0
  0
LINE
  5
10D
330
1F
100
AcDbEntity
  8
0
  6
Continuous
 62
     7
370
    25
100
AcDbLine
 10
92.3724741662
 20
87.143341602
 30
0.0
 11
91.3724741662
 21
86.143341602
 31
0.0
  0
LINE
  5
10E
330
1F
100
AcDbEntity
  8
0
  6
Continuous
 62
     7
370
    25
100
AcDbLine
 10
91.3724741662
 20
58.143341602
 30
0.0
 11
91.3724741662
 21
54.143341602
 31
0.0
  0
LINE
  5
10F
330
1F
100
AcDbEntity
  8
0
  6
Continuous
 62
     7
370
    25
100
AcDbLine
 10
91.3724741662
 20
86.143341602
 30
0.0
 11
91.3724741662
 21
64.143341602
 31
0.0
  0
LINE
  5
110
330
1F
100
AcDbEntity
  8
0
  6
Continuous
 62
     7
370
    25
100
AcDbLine
 10
121.3724741662
 20
54.143341602
 30
0.0
 11
121.3724741662
 21
86.143341602
 31
0.0
  0
LINE
  5
111
330
1F
100
AcDbEntity
  8
0
  6
Continuous
 62
     7
370
    25
100
AcDbLine
 10
91.3724741662
 20
54.143341602
 30
0.0
 11
92.3724741662
 21
53.143341602
 31
0.0
  0
LINE
  5
112
330
1F
100
AcDbEntity
  8
0
  6
Continuous
 62
     7
370
    25
100
AcDbLine
 10
120.3724741662
 20
53.143341602
 30
0.0
 11
121.3724741662
 21
54.143341602
 31
0.0
  0
LWPOLYLINE
  5
113
330
1F
100
AcDbEntity
  8
0
  6
Continuous
 62
     7
370
    25
100
AcDbPolyline
 90
       12
 70
   128
 43
0.0
 10
116.2670759997
 20
352.8364580364
 10
116.0010430463
 20
352.7896007451
 10
114.8320020531
 20
352.7282760479
 10
112.9701769468
 20
352.6707724156
 10
110.5212726217
 20
352.6109778851
 10
107.6999227552
 20
352.5502075343
 10
104.8243783482
 20
352.4932251693
 10
102.0190059187
 20
352.4322491021
 10
99.6116359973
 20
352.3728483497
 10
97.7962041468
 20
352.3150244493
 10
96.6885288171
 20
352.2536913051
 10
96.4725150479
 20
352.2066104729
  0
LWPOLYLINE
  5
114
330
1F
100
AcDbEntity
  8
0
  6
Continuous
 62
     7
370
    25
100
AcDbPolyline
 90
       12
 70
   128
 43
0.0
 10
116.2670349414
 20
351.5664508047
 10
116.0010430463
 20
351.5196007451
 10
114.8320020531
 20
351.4582760479
 10
112.9701769468
 20
351.4007724156
 10
110.5212726217
 20
351.3409778851
 10
107.6999227552
 20
351.2802075343
 10
104.8243783482
 20
351.2232251693
 10
102.0190059187
 20
351.1622491021
 10
99.6116359973
 20
351.1028483497
 10
97.7962041468
 20
351.0450244493
 10
96.6885288171
 20
350.9836913051
 10
96.4727595271
 20
350.9366637578
  0
LWPOLYLINE
  5
115
330
1F
100
AcDbEntity
  8
0
  6
Continuous
 62
     7
370
    25
100
AcDbPolyline
 90
       12
 70
   128
 43
0.0
 10
116.2669939376
 20
350.2964435825
 10
116.0010430463
 20
350.2496007451
 10
114.8320020531
 20
350.1882760479
 10
112.9701769468
 20
350.1307724156
 10
110.5212726217
 20
350.0709778851
 10
107.6999227552
 20
350.0102075343
 10
104.8243783482
 20
349.9532251693
 10
102.0190059187
 20
349.8922491021
 10
99.6116359973
 20
349.8328483497
 10
97.7962041468
 20
349.7750244493
 10
96.6885288171
 20
349.7136913051
 10
96.4727587384
 20
349.6666635859
  0
LWPOLYLINE
  5
116
330
1F
100
AcDbEntity
  8
0
  6
Continuous
 62
     7
370
    25
100
AcDbPolyline
 90
       12
 70
   128
 43
0.0
 10
116.266952988
 20
349.02643637
 10
116.0010430463
 20
348.9796007451
 10
114.8320020531
 20
348.9182760479
 10
112.9701769468
 20
348.8607724156
 10
110.5212726217
 20
348.8009778851
 10
107.6999227552
 20
348.7402075343
 10
104.8243783482
 20
348.6832251693
 10
102.0190059187
 20
348.6222491021
 10
99.6116359973
 20
348.5628483497
 10
97.7962041468
 20
348.5050244493
 10
96.6885288171
 20
348.4436913051
 10
96.4727575712
 20
348.3966633315
  0
LWPOLYLINE
  5
117
330
1F
100
AcDbEntity
  8
0
  6
Continuous
 62
     7
370
    25
100
AcDbPolyline
 90
       12
 70
   128
 43
0.0
 10
116.2669120922
 20
347.7564291668
 10
116.0010430463
 20
347.7096007451
 10
114.8320020531
 20
347.6482760479
 10
112.9701769468
 20
347.5907724156
 10
110.5212726217
 20
347.5309778851
 10
107.6999227552
 20
347.4702075343
 10
104.8243783482
 20
347.4132251693
 10
102.0190059187
 20
347.3522491021
 10
99.6116359973
 20
347.2928483497
 10
97.7962041468
 20
347.2350244493
 10
96.6885288171
 20
347.1736913051
 10
96.4727560234
 20
347.1266629942
  0
LWPOLYLINE
  5
118
330
1F
100
AcDbEntity
  8
0
  6
Continuous
 62
     7
370
    25
100
AcDbPolyline
 90
       12
 70
   128
 43
0.0
 10
116.2668712499
 20
346.4864219731
 10
116.0010430463
 20
346.4396007451
 10
114.8320020531
 20
346.3782760479
 10
112.9701769468
 20
346.3207724156
 10
110.5212726217
 20
346.2609778851
 10
107.6999227552
 20
346.2002075343
 10
104.8243783482
 20
346.1432251693
 10
102.0190059187
 20
346.0822491021
 10
99.6116359973
 20
346.0228483497
 10
97.7962041468
 20
345.9650244493
 10
96.6885288171
 20
345.9036913051
 10
96.4727540934
 20
345.8566625735
  0
LWPOLYLINE
  5
119
330
1F
100
AcDbEntity
  8
0
  6
Continuous
 62
     7
370
    25
100
AcDbPolyline
 90
       12
 70
   128
 43
0.0
 10
116.2668304607
 20
345.2164147888
 10
116.0010430463
 20
345.1696007451
 10
114.8320020531
 20
345.1082760479
 10
112.9701769468
 20
345.0507724156
 10
110.5212726217
 20
344.9909778851
 10
107.6999227552
 20
344.9302075343
 10
104.8243783482
 20
344.8732251693
 10
102.0190059187
 20
344.8122491021
 10
99.6116359973
 20
344.7528483497
 10
97.7962041468
 20
344.6950244493
 10
96.6885288171
 20
344.6336913051
 10
96.4727517793
 20
344.5866620692
  0
LWPOLYLINE
  5
11A
330
1F
100
AcDbEntity
  8
0
  6
Continuous
 62
     7
370
    25
100
AcDbPolyline
 90
       12
 70
   128
 43
0.0
 10
116.2667897242
 20
343.9464076137
 10
116.0010430463
 20
343.8996007451
 10
114.8320020531
 20
343.8382760479
 10
112.9701769468
 20
343.7807724156
 10
110.5212726217
 20
343.7209778851
 10
107.6999227552
 20
343.6602075343
 10
104.8243783482
 20
343.6032251693
 10
102.0190059187
 20
343.5422491021
 10
99.6116359973
 20
343.4828483497
 10
97.7962041468
 20
343.4250244493
 10
96.6885288171
 20
343.3636913051
 10
96.4727490792
 20
343.3166614807
  0
LWPOLYLINE
  5
11B
330
1F
100
AcDbEntity
  8
0
  6
Continuous
 62
     7
370
    25
100
AcDbPolyline
 90
       12
 70
   128
 43
0.0
 10
116.26674904
 20
342.6764004479
 10
116.0010430463
 20
342.6296007451
 10
114.8320020531
 20
342.5682760479
 10
112.9701769468
 20
342.5107724156
 10
110.5212726217
 20
342.4509778851
 10
107.6999227552
 20
342.3902075343
 10
104.8243783482
 20
342.3332251693
 10
102.0190059187
 20
342.2722491021
 10
99.6116359973
 20
342.2128483497
 10
97.7962041468
 20
342.1550244493
 10
96.6885288171
 20
342.0936913051
 10
96.4727459914
 20
342.0466608077
  0
LWPOLYLINE
  5
11C
330
1F
100
AcDbEntity
  8
0
  6
Continuous
 62
     7
370
    25
100
AcDbPolyline
 90
       12
 70
   128
 43
0.0
 10
116.2667084078
 20
341.4063932912
 10
116.0010430463
 20
341.3596007451
 10
114.8320020531
 20
341.2982760479
 10
112.9701769468
 20
341.2407724156
 10
110.5212726217
 20
341.1809778851
 10
107.6999227552
 20
341.1202075343
 10
104.8243783482
 20
341.0632251693
 10
102.0190059187
 20
341.0022491021
 10
99.6116359973
 20
340.9428483497
 10
97.7962041468
 20
340.8850244493
 10
96.6885288171
 20
340.8236913051
 10
96.4727425141
 20
340.7766600498
  0
LWPOLYLINE
  5
11D
330
1F
100
AcDbEntity
  8
0
  6
Continuous
 62
     7
370
    25
100
AcDbPolyline
 90
       12
 70
   128
 43
0.0
 10
116.2666678273
 20
340.1363861436
 10
116.0010430463
 20
340.0896007451
 10
114.8320020531
 20
340.0282760479
 10
112.9701769468
 20
339.9707724156
 10
110.5212726217
 20
339.9109778851
 10
107.6999227552
 20
339.8502075343
 10
104.8243783482
 20
339.7932251693
 10
102.0190059187
 20
339.7322491021
 10
99.6116359973
 20
339.6728483497
 10
97.7962041468
 20
339.6150244493
 10
96.6885288171
 20
339.5536913051
 10
96.4727386455
 20
339.5066592066
  0
LWPOLYLINE
  5
11E
330
1F
100
AcDbEntity
  8
0
  6
Continuous
 62
     7
370
    25
100
AcDbPolyline
 90
       12
 70
   128
 43
0.0
 10
116.266627298
 20
338.8663790051
 10
116.0010430463
 20
338.8196007451
 10
114.8320020531
 20
338.7582760479
 10
112.9701769468
 20
338.7007724156
 10
110.5212726217
 20
338.6409778851
 10
107.6999227552
 20
338.5802075343
 10
104.8243783482
 20
338.5232251693
 10
102.0190059187
 20
338.4622491021
 10
99.6116359973
 20
338.4028483497
 10
97.7962041468
 20
338.3450244493
 10
96.6885288171
 20
338.2836913051
 10
96.472734384
 20
338.2366582778
  0
LWPOLYLINE
  5
11F
330
1F
100
AcDbEntity
  8
0
  6
Continuous
 62
     7
370
    25
100
AcDbPolyline
 90
       12
 70
   128
 43
0.0
 10
116.2665868196
 20
337.5963718755
 10
116.0010430463
 20
337.5496007451
 10
114.8320020531
 20
337.4882760479
 10
112.9701769468
 20
337.4307724156
 10
110.5212726217
 20
337.3709778851
 10
107.6999227552
 20
337.3102075343
 10
104.8243783482
 20
337.2532251693
 10
102.0190059187
 20
337.1922491021
 10
99.6116359973
 20
337.1328483497
 10
97.7962041468
 20
337.0750244493
 10
96.6885288171
 20
337.0136913051
 10
96.4727297277
 20
336.966657263
  0
LWPOLYLINE
  5
120
330
1F
100
AcDbEntity
  8
0
  6
Continuous
 62
     7
370
    25
100
AcDbPolyline
 90
       12
 70
   128
 43
0.0
 10
116.2665463917
 20
336.3263647548
 10
116.0010430463
 20
336.2796007451
 10
114.8320020531
 20
336.2182760479
 10
112.9701769468
 20
336.1607724156
 10
110.5212726217
 20
336.1009778851
 10
107.6999227552
 20
336.0402075343
 10
104.8243783482
 20
335.9832251693
 10
102.0190059187
 20
335.9222491021
 10
99.6116359973
 20
335.8628483497
 10
97.7962041468
 20
335.8050244493
 10
96.6885288171
 20
335.7436913051
 10
96.472724675
 20
335.6966561617
  0
LWPOLYLINE
  5
121
330
1F
100
AcDbEntity
  8
0
  6
Continuous
 62
     7
370
    25
100
AcDbPolyline
 90
       12
 70
   128
 43
0.0
 10
116.266506014
 20
335.0563576429
 10
116.0010430463
 20
335.0096007451
 10
114.8320020531
 20
334.9482760479
 10
112.9701769468
 20
334.8907724156
 10
110.5212726217
 20
334.8309778851
 10
107.6999227552
 20
334.7702075343
 10
104.8243783482
 20
334.7132251693
 10
102.0190059187
 20
334.6522491021
 10
99.6116359973
 20
334.5928483497
 10
97.7962041468
 20
334.5350244493
 10
96.6885288171
 20
334.4736913051
 10
96.4727192242
 20
334.4266549737
  0
LWPOLYLINE
  5
122
330
1F
100
AcDbEntity
  8
0
  6
Continuous
 62
     7
370
    25
100
AcDbPolyline
 90
       12
 70
   128
 43
0.0
 10
116.2664628798
 20
333.7863500455
 10
116.0010430463
 20
333.7396007451
 10
114.8320020531
 20
333.6782760479
 10
112.9701769468
 20
333.6207724156
 10
110.5212726217
 20
333.5609778851
 10
107.6999227552
 20
333.5002075343
 10
104.8243783482
 20
333.4432251693
 10
102.0190059187
 20
333.3822491021
 10
99.6116359973
 20
333.3228483497
 10
97.7962041468
 20
333.2650244493
 10
96.6885288171
 20
333.2036913051
 10
96.4727133736
 20
333.1566536985
  0
LWPOLYLINE
  5
123
330
1F
100
AcDbEntity
  8
0
  6
Continuous
 62
     7
370
    25
100
AcDbPolyline
 90
       12
 70
   128
 43
0.0
 10
116.2664254077
 20
332.5163434454
 10
116.0010430463
 20
332.4696007451
 10
114.8320020531
 20
332.4082760479
 10
112.9701769468
 20
332.3507724156
 10
110.5212726217
 20
332.2909778851
 10
107.6999227552
 20
332.2302075343
 10
104.8243783482
 20
332.1732251693
 10
102.0190059187
 20
332.1122491021
 10
99.6116359973
 20
332.0528483497
 10
97.7962041468
 20
331.9950244493
 10
96.6885288171
 20
331.9336913051
 10
96.4727071215
 20
331.8866523359
  0
LWPOLYLINE
  5
124
330
1F
100
AcDbEntity
  8
0
  6
Continuous
 62
     7
370
    25
100
AcDbPolyline
 90
       10
 70
   128
 43
0.0
 10
116.2663851783
 20
331.2463363597
 10
116.0010430463
 20
331.1996007451
 10
114.8320020531
 20
331.1382760479
 10
112.9701769468
 20
331.0807724156
 10
110.5212726217
 20
331.0209778851
 10
107.6999227552
 20
330.9602075343
 10
104.8243783482
 20
330.9032251693
 10
102.0190059187
 20
330.8422491021
 10
99.6116359973
 20
330.7828483497
 10
98.4003564733
 20
330.7472498056
  0
LINE
  5
125
330
1F
100
AcDbEntity
  8
0
  6
Continuous
 62
     7
370
    25
100
AcDbLine
 10
97.8502893229
 20
331.1441248039
 30
0.0
 11
98.4003564733
 21
330.7472498056
 31
0.0
  0
LWPOLYLINE
  5
126
330
1F
100
AcDbEntity
  8
0
  6
Continuous
 62
     7
370
    25
100
AcDbPolyline
 90
       11
 70
   128
 43
0.0
 10
115.8721657627
 20
353.1431417151
 10
114.5572193446
 20
353.097359425
 10
112.8640441246
 20
353.0540959664
 10
110.8075350468
 20
353.0078528834
 10
107.7915152142
 20
352.9470825325
 10
104.7175614787
 20
352.8901001676
 10
101.7186215083
 20
352.8291241003
 10
99.1451457711
 20
352.7697233479
 10
97.2044511656
 20
352.7118994476
 10
96.0203474846
 20
352.6505663033
 10
95.7897221592
 20
352.6035452402
  0
LWPOLYLINE
  5
127
330
1F
100
AcDbEntity
  8
0
  6
Continuous
 62
     7
370
    25
100
AcDbPolyline
 90
       13
 70
   128
 43
0.0
 10
116.9002355662
 20
351.9637548876
 10
116.8831590494
 20
351.9364093038
 10
115.8721657627
 20
351.8731417151
 10
114.5572193446
 20
351.827359425
 10
112.8640441246
 20
351.7840959664
 10
110.8075350468
 20
351.7378528834
 10
107.7915152142
 20
351.6770825325
 10
104.7175614787
 20
351.6201001676
 10
101.7186215083
 20
351.5591241003
 10
99.1451457711
 20
351.4997233479
 10
97.2044511656
 20
351.4418994476
 10
96.0203474846
 20
351.3805663033
 10
95.7897221592
 20
351.3335452402
  0
LWPOLYLINE
  5
128
330
1F
100
AcDbEntity
  8
0
  6
Continuous
 62
     7
370
    25
100
AcDbPolyline
 90
       13
 70
   128
 43
0.0
 10
116.900226205
 20
350.6937398969
 10
116.8831590494
 20
350.6664093038
 10
115.8721657627
 20
350.6031417151
 10
114.5572193446
 20
350.557359425
 10
112.8640441246
 20
350.5140959664
 10
110.8075350468
 20
350.4678528834
 10
107.7915152142
 20
350.4070825325
 10
104.7175614787
 20
350.3501001676
 10
101.7186215083
 20
350.2891241003
 10
99.1451457711
 20
350.2297233479
 10
97.2044511656
 20
350.1718994476
 10
96.0203474846
 20
350.1105663033
 10
95.7897221592
 20
350.0635452402
  0
LWPOLYLINE
  5
129
330
1F
100
AcDbEntity
  8
0
  6
Continuous
 62
     7
370
    25
100
AcDbPolyline
 90
       13
 70
   128
 43
0.0
 10
116.9002168445
 20
349.4237249074
 10
116.8831590494
 20
349.3964093038
 10
115.8721657627
 20
349.3331417151
 10
114.5572193446
 20
349.287359425
 10
112.8640441246
 20
349.2440959664
 10
110.8075350468
 20
349.1978528834
 10
107.7915152142
 20
349.1370825325
 10
104.7175614787
 20
349.0801001676
 10
101.7186215083
 20
349.0191241003
 10
99.1451457711
 20
348.9597233479
 10
97.2044511656
 20
348.9018994476
 10
96.0203474846
 20
348.8405663033
 10
95.7897221592
 20
348.7935452402
  0
LWPOLYLINE
  5
12A
330
1F
100
AcDbEntity
  8
0
  6
Continuous
 62
     7
370
    25
100
AcDbPolyline
 90
       13
 70
   128
 43
0.0
 10
116.9002074847
 20
348.1537099191
 10
116.8831590494
 20
348.1264093038
 10
115.8721657627
 20
348.0631417151
 10
114.5572193446
 20
348.017359425
 10
112.8640441246
 20
347.9740959664
 10
110.8075350468
 20
347.9278528834
 10
107.7915152142
 20
347.8670825325
 10
104.7175614787
 20
347.8101001676
 10
101.7186215083
 20
347.7491241003
 10
99.1451457711
 20
347.6897233479
 10
97.2044511656
 20
347.6318994476
 10
96.0203474846
 20
347.5705663033
 10
95.7897221592
 20
347.5235452402
  0
LWPOLYLINE
  5
12B
330
1F
100
AcDbEntity
  8
0
  6
Continuous
 62
     7
370
    25
100
AcDbPolyline
 90
       13
 70
   128
 43
0.0
 10
116.9001981258
 20
346.8836949321
 10
116.8831590494
 20
346.8564093038
 10
115.8721657627
 20
346.7931417151
 10
114.5572193446
 20
346.747359425
 10
112.8640441246
 20
346.7040959664
 10
110.8075350468
 20
346.6578528834
 10
107.7915152142
 20
346.5970825325
 10
104.7175614787
 20
346.5401001676
 10
101.7186215083
 20
346.4791241003
 10
99.1451457711
 20
346.4197233479
 10
97.2044511656
 20
346.3618994476
 10
96.0203474846
 20
346.3005663033
 10
95.7897221592
 20
346.2535452402
  0
LWPOLYLINE
  5
12C
330
1F
100
AcDbEntity
  8
0
  6
Continuous
 62
     7
370
    25
100
AcDbPolyline
 90
       13
 70
   128
 43
0.0
 10
116.9001887676
 20
345.6136799463
 10
116.8831590494
 20
345.5864093038
 10
115.8721657627
 20
345.5231417151
 10
114.5572193446
 20
345.477359425
 10
112.8640441246
 20
345.4340959664
 10
110.8075350468
 20
345.3878528834
 10
107.7915152142
 20
345.3270825325
 10
104.7175614787
 20
345.2701001676
 10
101.7186215083
 20
345.2091241003
 10
99.1451457711
 20
345.1497233479
 10
97.2044511656
 20
345.0918994476
 10
96.0203474846
 20
345.0305663033
 10
95.7897221592
 20
344.9835452402
  0
LWPOLYLINE
  5
12D
330
1F
100
AcDbEntity
  8
0
  6
Continuous
 62
     7
370
    25
100
AcDbPolyline
 90
       13
 70
   128
 43
0.0
 10
116.9001794103
 20
344.3436649619
 10
116.8831590494
 20
344.3164093038
 10
115.8721657627
 20
344.2531417151
 10
114.5572193446
 20
344.207359425
 10
112.8640441246
 20
344.1640959664
 10
110.8075350468
 20
344.1178528834
 10
107.7915152142
 20
344.0570825325
 10
104.7175614787
 20
344.0001001676
 10
101.7186215083
 20
343.9391241003
 10
99.1451457711
 20
343.8797233479
 10
97.2044511656
 20
343.8218994476
 10
96.0203474846
 20
343.7605663033
 10
95.7897221592
 20
343.7135452402
  0
LWPOLYLINE
  5
12E
330
1F
100
AcDbEntity
  8
0
  6
Continuous
 62
     7
370
    25
100
AcDbPolyline
 90
       13
 70
   128
 43
0.0
 10
116.9001700539
 20
343.073649979
 10
116.8831590494
 20
343.0464093038
 10
115.8721657627
 20
342.9831417151
 10
114.5572193446
 20
342.937359425
 10
112.8640441246
 20
342.8940959664
 10
110.8075350468
 20
342.8478528834
 10
107.7915152142
 20
342.7870825325
 10
104.7175614787
 20
342.7301001676
 10
101.7186215083
 20
342.6691241003
 10
99.1451457711
 20
342.6097233479
 10
97.2044511656
 20
342.5518994476
 10
96.0203474846
 20
342.4905663033
 10
95.7897221592
 20
342.4435452402
  0
LWPOLYLINE
  5
12F
330
1F
100
AcDbEntity
  8
0
  6
Continuous
 62
     7
370
    25
100
AcDbPolyline
 90
       13
 70
   128
 43
0.0
 10
116.9001606984
 20
341.8036349976
 10
116.8831590494
 20
341.7764093038
 10
115.8721657627
 20
341.7131417151
 10
114.5572193446
 20
341.667359425
 10
112.8640441246
 20
341.6240959664
 10
110.8075350468
 20
341.5778528834
 10
107.7915152142
 20
341.5170825325
 10
104.7175614787
 20
341.4601001676
 10
101.7186215083
 20
341.3991241003
 10
99.1451457711
 20
341.3397233479
 10
97.2044511656
 20
341.2818994476
 10
96.0203474846
 20
341.2205663033
 10
95.7897221592
 20
341.1735452402
  0
LWPOLYLINE
  5
130
330
1F
100
AcDbEntity
  8
0
  6
Continuous
 62
     7
370
    25
100
AcDbPolyline
 90
       13
 70
   128
 43
0.0
 10
116.9001513439
 20
340.5336200177
 10
116.8831590494
 20
340.5064093038
 10
115.8721657627
 20
340.4431417151
 10
114.5572193446
 20
340.397359425
 10
112.8640441246
 20
340.3540959664
 10
110.8075350468
 20
340.3078528834
 10
107.7915152142
 20
340.2470825325
 10
104.7175614787
 20
340.1901001676
 10
101.7186215083
 20
340.1291241003
 10
99.1451457711
 20
340.0697233479
 10
97.2044511656
 20
340.0118994476
 10
96.0203474846
 20
339.9505663033
 10
95.7897221592
 20
339.9035452402
  0
LWPOLYLINE
  5
131
330
1F
100
AcDbEntity
  8
0
  6
Continuous
 62
     7
370
    25
100
AcDbPolyline
 90
       13
 70
   128
 43
0.0
 10
116.9001419905
 20
339.2636050395
 10
116.8831590494
 20
339.2364093038
 10
115.8721657627
 20
339.1731417151
 10
114.5572193446
 20
339.127359425
 10
112.8640441246
 20
339.0840959664
 10
110.8075350468
 20
339.0378528834
 10
107.7915152142
 20
338.9770825325
 10
104.7175614787
 20
338.9201001676
 10
101.7186215083
 20
338.8591241003
 10
99.1451457711
 20
338.7997233479
 10
97.2044511656
 20
338.7418994476
 10
96.0203474846
 20
338.6805663033
 10
95.7897221592
 20
338.6335452402
  0
LWPOLYLINE
  5
132
330
1F
100
AcDbEntity
  8
0
  6
Continuous
 62
     7
370
    25
100
AcDbPolyline
 90
       13
 70
   128
 43
0.0
 10
116.9001326381
 20
337.993590063
 10
116.8831590494
 20
337.9664093038
 10
115.8721657627
 20
337.9031417151
 10
114.5572193446
 20
337.857359425
 10
112.8640441246
 20
337.8140959664
 10
110.8075350468
 20
337.7678528834
 10
107.7915152142
 20
337.7070825325
 10
104.7175614787
 20
337.6501001676
 10
101.7186215083
 20
337.5891241003
 10
99.1451457711
 20
337.5297233479
 10
97.2044511656
 20
337.4718994476
 10
96.0203474846
 20
337.4105663033
 10
95.7897221592
 20
337.3635452402
  0
LWPOLYLINE
  5
133
330
1F
100
AcDbEntity
  8
0
  6
Continuous
 62
     7
370
    25
100
AcDbPolyline
 90
       13
 70
   128
 43
0.0
 10
116.9001232868
 20
336.7235750882
 10
116.8831590494
 20
336.6964093038
 10
115.8721657627
 20
336.6331417151
 10
114.5572193446
 20
336.587359425
 10
112.8640441246
 20
336.5440959664
 10
110.8075350468
 20
336.4978528834
 10
107.7915152142
 20
336.4370825325
 10
104.7175614787
 20
336.3801001676
 10
101.7186215083
 20
336.3191241003
 10
99.1451457711
 20
336.2597233479
 10
97.2044511656
 20
336.2018994476
 10
96.0203474846
 20
336.1405663033
 10
95.7897221592
 20
336.0935452402
  0
LWPOLYLINE
  5
134
330
1F
100
AcDbEntity
  8
0
  6
Continuous
 62
     7
370
    25
100
AcDbPolyline
 90
       13
 70
   128
 43
0.0
 10
116.9001139366
 20
335.4535601153
 10
116.8831590494
 20
335.4264093038
 10
115.8721657627
 20
335.3631417151
 10
114.5572193446
 20
335.317359425
 10
112.8640441246
 20
335.2740959664
 10
110.8075350468
 20
335.2278528834
 10
107.7915152142
 20
335.1670825325
 10
104.7175614787
 20
335.1101001676
 10
101.7186215083
 20
335.0491241003
 10
99.1451457711
 20
334.9897233479
 10
97.2044511656
 20
334.9318994476
 10
96.0203474846
 20
334.8705663033
 10
95.7897221592
 20
334.8235452402
  0
LWPOLYLINE
  5
135
330
1F
100
AcDbEntity
  8
0
  6
Continuous
 62
     7
370
    25
100
AcDbPolyline
 90
       13
 70
   128
 43
0.0
 10
116.9001045876
 20
334.1835451442
 10
116.8831590494
 20
334.1564093038
 10
115.8721657627
 20
334.0931417151
 10
114.5572193446
 20
334.047359425
 10
112.8640441246
 20
334.0040959664
 10
110.8075350468
 20
333.9578528834
 10
107.7915152142
 20
333.8970825325
 10
104.7175614787
 20
333.8401001676
 10
101.7186215083
 20
333.7791241003
 10
99.1451457711
 20
333.7197233479
 10
97.2044511656
 20
333.6618994476
 10
96.0203474846
 20
333.6005663033
 10
95.7897221592
 20
333.5535452402
  0
LWPOLYLINE
  5
136
330
1F
100
AcDbEntity
  8
0
  6
Continuous
 62
     7
370
    25
100
AcDbPolyline
 90
       13
 70
   128
 43
0.0
 10
116.9000952399
 20
332.9135301751
 10
116.8831590494
 20
332.8864093038
 10
115.8721657627
 20
332.8231417151
 10
114.5572193446
 20
332.777359425
 10
112.8640441246
 20
332.7340959664
 10
110.8075350468
 20
332.6878528834
 10
107.7915152142
 20
332.6270825325
 10
104.7175614787
 20
332.5701001676
 10
101.7186215083
 20
332.5091241003
 10
99.1451457711
 20
332.4497233479
 10
97.2044511656
 20
332.3918994476
 10
96.0203474846
 20
332.3305663033
 10
95.7897221592
 20
332.2835452402
  0
LWPOLYLINE
  5
137
330
1F
100
AcDbEntity
  8
0
  6
Continuous
 62
     7
370
    25
100
AcDbPolyline
 90
       11
 70
   128
 43
0.0
 10
116.9000858934
 20
331.6435152081
 10
116.8831590494
 20
331.6164093038
 10
115.8721657627
 20
331.5531417151
 10
114.5572193446
 20
331.507359425
 10
112.8640441246
 20
331.4640959664
 10
110.8075350468
 20
331.4178528834
 10
107.7915152142
 20
331.3570825325
 10
104.7175614787
 20
331.3001001676
 10
101.7186215083
 20
331.2391241003
 10
99.1451457711
 20
331.1797233479
 10
97.8502994524
 20
331.1441251226
  0
LINE
  5
138
330
1F
100
AcDbEntity
  8
0
  6
Continuous
 62
     7
370
    25
100
AcDbLine
 10
115.8768143286
 20
353.143341602
 30
0.0
 11
116.8031521013
 21
353.143341602
 31
0.0
  0
LINE
  5
139
330
1F
100
AcDbEntity
  8
0
  6
Continuous
 62
     7
370
    25
100
AcDbLine
 10
115.8721648855
 20
353.143341602
 30
0.0
 11
115.8768143242
 21
353.143341602
 31
0.0
  0
LWPOLYLINE
  5
13A
330
1F
100
AcDbEntity
  8
0
  6
Continuous
 62
     7
370
    25
100
AcDbPolyline
 90
        5
 70
   128
 43
0.0
 10
96.4267792505
 20
87.3420250507
 10
96.4205378628
 20
87.3441622383
 10
97.0690183487
 20
87.4090123981
 10
98.6680209913
 20
87.4746989573
 10
100.7462284462
 20
87.530069757
  0
LWPOLYLINE
  5
13B
330
1F
100
AcDbEntity
  8
0
  6
Continuous
 62
     7
370
    25
100
AcDbPolyline
 90
       10
 70
   128
 43
0.0
 10
97.8502905876
 20
330.0328748471
 10
100.1644971353
 20
330.0930100509
 10
103.1224645429
 20
330.1573271092
 10
106.3526194851
 20
330.2192342171
 10
109.583225585
 20
330.2810565806
 10
112.5473028658
 20
330.345400192
 10
114.8702354079
 20
330.4055423329
 10
116.4300403137
 20
330.4696538611
 10
117.0188715717
 20
330.5320808407
 10
116.9839607125
 20
330.5372405375
  0
LWPOLYLINE
  5
13C
330
1F
100
AcDbEntity
  8
0
  6
Continuous
 62
     7
370
    25
100
AcDbPolyline
 90
       13
 70
   128
 43
0.0
 10
95.7964096665
 20
331.1764969513
 10
95.8605321886
 20
331.203875748
 10
96.5734471218
 20
331.2534931661
 10
97.8502905876
 20
331.3028748471
 10
100.1644971353
 20
331.3630100509
 10
103.1224645429
 20
331.4273271092
 10
106.3526194851
 20
331.4892342171
 10
109.583225585
 20
331.5510565806
 10
112.5473028658
 20
331.615400192
 10
114.8702354079
 20
331.6755423329
 10
116.4300403137
 20
331.7396538611
 10
117.0188715717
 20
331.8020808407
 10
116.9839607125
 20
331.8072405375
  0
LWPOLYLINE
  5
13D
330
1F
100
AcDbEntity
  8
0
  6
Continuous
 62
     7
370
    25
100
AcDbPolyline
 90
       13
 70
   128
 43
0.0
 10
95.7964305777
 20
332.4465058799
 10
95.8605321886
 20
332.473875748
 10
96.5734471218
 20
332.5234931661
 10
97.8502905876
 20
332.5728748471
 10
100.1644971353
 20
332.6330100509
 10
103.1224645429
 20
332.6973271092
 10
106.3526194851
 20
332.7592342171
 10
109.583225585
 20
332.8210565806
 10
112.5473028658
 20
332.885400192
 10
114.8702354079
 20
332.9455423329
 10
116.4300403137
 20
333.0096538611
 10
117.0188715717
 20
333.0720808407
 10
116.9839607125
 20
333.0772405375
  0
LWPOLYLINE
  5
13E
330
1F
100
AcDbEntity
  8
0
  6
Continuous
 62
     7
370
    25
100
AcDbPolyline
 90
       13
 70
   128
 43
0.0
 10
95.7964514951
 20
333.7165148111
 10
95.8605321886
 20
333.743875748
 10
96.5734471218
 20
333.7934931661
 10
97.8502905876
 20
333.8428748471
 10
100.1644971353
 20
333.9030100509
 10
103.1224645429
 20
333.9673271092
 10
106.3526194851
 20
334.0292342171
 10
109.583225585
 20
334.0910565806
 10
112.5473028658
 20
334.155400192
 10
114.8702354079
 20
334.2155423329
 10
116.4300403137
 20
334.2796538611
 10
117.0188715717
 20
334.3420808407
 10
116.9839607125
 20
334.3472405375
  0
LWPOLYLINE
  5
13F
330
1F
100
AcDbEntity
  8
0
  6
Continuous
 62
     7
370
    25
100
AcDbPolyline
 90
       13
 70
   128
 43
0.0
 10
95.7964724186
 20
334.9865237449
 10
95.8605321886
 20
335.013875748
 10
96.5734471218
 20
335.0634931661
 10
97.8502905876
 20
335.1128748471
 10
100.1644971353
 20
335.1730100509
 10
103.1224645429
 20
335.2373271092
 10
106.3526194851
 20
335.2992342171
 10
109.583225585
 20
335.3610565806
 10
112.5473028658
 20
335.425400192
 10
114.8702354079
 20
335.4855423329
 10
116.4300403137
 20
335.5496538611
 10
117.0188715717
 20
335.6120808407
 10
116.9839607125
 20
335.6172405375
  0
LWPOLYLINE
  5
140
330
1F
100
AcDbEntity
  8
0
  6
Continuous
 62
     7
370
    25
100
AcDbPolyline
 90
       13
 70
   128
 43
0.0
 10
95.7964933482
 20
336.2565326814
 10
95.8605321886
 20
336.283875748
 10
96.5734471218
 20
336.3334931661
 10
97.8502905876
 20
336.3828748471
 10
100.1644971353
 20
336.4430100509
 10
103.1224645429
 20
336.5073271092
 10
106.3526194851
 20
336.5692342171
 10
109.583225585
 20
336.6310565806
 10
112.5473028658
 20
336.695400192
 10
114.8702354079
 20
336.7555423329
 10
116.4300403137
 20
336.8196538611
 10
117.0188715717
 20
336.8820808407
 10
116.9839607125
 20
336.8872405375
  0
LWPOLYLINE
  5
141
330
1F
100
AcDbEntity
  8
0
  6
Continuous
 62
     7
370
    25
100
AcDbPolyline
 90
       13
 70
   128
 43
0.0
 10
95.7965142837
 20
337.5265416203
 10
95.8605321886
 20
337.553875748
 10
96.5734471218
 20
337.6034931661
 10
97.8502905876
 20
337.6528748471
 10
100.1644971353
 20
337.7130100509
 10
103.1224645429
 20
337.7773271092
 10
106.3526194851
 20
337.8392342171
 10
109.583225585
 20
337.9010565806
 10
112.5473028658
 20
337.965400192
 10
114.8702354079
 20
338.0255423329
 10
116.4300403137
 20
338.0896538611
 10
117.0188715717
 20
338.1520808407
 10
116.9839607125
 20
338.1572405375
  0
LWPOLYLINE
  5
142
330
1F
100
AcDbEntity
  8
0
  6
Continuous
 62
     7
370
    25
100
AcDbPolyline
 90
       13
 70
   128
 43
0.0
 10
95.796535225
 20
338.7965505618
 10
95.8605321886
 20
338.823875748
 10
96.5734471218
 20
338.8734931661
 10
97.8502905876
 20
338.9228748471
 10
100.1644971353
 20
338.9830100509
 10
103.1224645429
 20
339.0473271092
 10
106.3526194851
 20
339.1092342171
 10
109.583225585
 20
339.1710565806
 10
112.5473028658
 20
339.235400192
 10
114.8702354079
 20
339.2955423329
 10
116.4300403137
 20
339.3596538611
 10
117.0188715717
 20
339.4220808407
 10
116.9839607125
 20
339.4272405375
  0
LWPOLYLINE
  5
143
330
1F
100
AcDbEntity
  8
0
  6
Continuous
 62
     7
370
    25
100
AcDbPolyline
 90
       13
 70
   128
 43
0.0
 10
95.7965561721
 20
340.0665595057
 10
95.8605321886
 20
340.093875748
 10
96.5734471218
 20
340.1434931661
 10
97.8502905876
 20
340.1928748471
 10
100.1644971353
 20
340.2530100509
 10
103.1224645429
 20
340.3173271092
 10
106.3526194851
 20
340.3792342171
 10
109.583225585
 20
340.4410565806
 10
112.5473028658
 20
340.505400192
 10
114.8702354079
 20
340.5655423329
 10
116.4300403137
 20
340.6296538611
 10
117.0188715717
 20
340.6920808407
 10
116.9839607125
 20
340.6972405375
  0
LWPOLYLINE
  5
144
330
1F
100
AcDbEntity
  8
0
  6
Continuous
 62
     7
370
    25
100
AcDbPolyline
 90
       13
 70
   128
 43
0.0
 10
95.7965771248
 20
341.336568452
 10
95.8605321886
 20
341.363875748
 10
96.5734471218
 20
341.4134931661
 10
97.8502905876
 20
341.4628748471
 10
100.1644971353
 20
341.5230100509
 10
103.1224645429
 20
341.5873271092
 10
106.3526194851
 20
341.6492342171
 10
109.583225585
 20
341.7110565806
 10
112.5473028658
 20
341.775400192
 10
114.8702354079
 20
341.8355423329
 10
116.4300403137
 20
341.8996538611
 10
117.0188715717
 20
341.9620808407
 10
116.9839607125
 20
341.9672405375
  0
LWPOLYLINE
  5
145
330
1F
100
AcDbEntity
  8
0
  6
Continuous
 62
     7
370
    25
100
AcDbPolyline
 90
       13
 70
   128
 43
0.0
 10
95.7965980831
 20
342.6065774007
 10
95.8605321886
 20
342.633875748
 10
96.5734471218
 20
342.6834931661
 10
97.8502905876
 20
342.7328748471
 10
100.1644971353
 20
342.7930100509
 10
103.1224645429
 20
342.8573271092
 10
106.3526194851
 20
342.9192342171
 10
109.583225585
 20
342.9810565806
 10
112.5473028658
 20
343.045400192
 10
114.8702354079
 20
343.1055423329
 10
116.4300403137
 20
343.1696538611
 10
117.0188715717
 20
343.2320808407
 10
116.9839607125
 20
343.2372405375
  0
LWPOLYLINE
  5
146
330
1F
100
AcDbEntity
  8
0
  6
Continuous
 62
     7
370
    25
100
AcDbPolyline
 90
       13
 70
   128
 43
0.0
 10
95.796619047
 20
343.8765863518
 10
95.8605321886
 20
343.903875748
 10
96.5734471218
 20
343.9534931661
 10
97.8502905876
 20
344.0028748471
 10
100.1644971353
 20
344.0630100509
 10
103.1224645429
 20
344.1273271092
 10
106.3526194851
 20
344.1892342171
 10
109.583225585
 20
344.2510565806
 10
112.5473028658
 20
344.315400192
 10
114.8702354079
 20
344.3755423329
 10
116.4300403137
 20
344.4396538611
 10
117.0188715717
 20
344.5020808407
 10
116.9839607125
 20
344.5072405375
  0
LWPOLYLINE
  5
147
330
1F
100
AcDbEntity
  8
0
  6
Continuous
 62
     7
370
    25
100
AcDbPolyline
 90
       13
 70
   128
 43
0.0
 10
95.7966400162
 20
345.1465953051
 10
95.8605321886
 20
345.173875748
 10
96.5734471218
 20
345.2234931661
 10
97.8502905876
 20
345.2728748471
 10
100.1644971353
 20
345.3330100509
 10
103.1224645429
 20
345.3973271092
 10
106.3526194851
 20
345.4592342171
 10
109.583225585
 20
345.5210565806
 10
112.5473028658
 20
345.585400192
 10
114.8702354079
 20
345.6455423329
 10
116.4300403137
 20
345.7096538611
 10
117.0188715717
 20
345.7720808407
 10
116.9839607125
 20
345.7772405375
  0
LWPOLYLINE
  5
148
330
1F
100
AcDbEntity
  8
0
  6
Continuous
 62
     7
370
    25
100
AcDbPolyline
 90
       13
 70
   128
 43
0.0
 10
95.7966609907
 20
346.4166042608
 10
95.8605321886
 20
346.443875748
 10
96.5734471218
 20
346.4934931661
 10
97.8502905876
 20
346.5428748471
 10
100.1644971353
 20
346.6030100509
 10
103.1224645429
 20
346.6673271092
 10
106.3526194851
 20
346.7292342171
 10
109.583225585
 20
346.7910565806
 10
112.5473028658
 20
346.855400192
 10
114.8702354079
 20
346.9155423329
 10
116.4300403137
 20
346.9796538611
 10
117.0188715717
 20
347.0420808407
 10
116.9839607125
 20
347.0472405375
  0
LWPOLYLINE
  5
149
330
1F
100
AcDbEntity
  8
0
  6
Continuous
 62
     7
370
    25
100
AcDbPolyline
 90
       13
 70
   128
 43
0.0
 10
95.7966819705
 20
347.6866132186
 10
95.8605321886
 20
347.713875748
 10
96.5734471218
 20
347.7634931661
 10
97.8502905876
 20
347.8128748471
 10
100.1644971353
 20
347.8730100509
 10
103.1224645429
 20
347.9373271092
 10
106.3526194851
 20
347.9992342171
 10
109.583225585
 20
348.0610565806
 10
112.5473028658
 20
348.125400192
 10
114.8702354079
 20
348.1855423329
 10
116.4300403137
 20
348.2496538611
 10
117.0188715717
 20
348.3120808407
 10
116.9839607125
 20
348.3172405375
  0
LWPOLYLINE
  5
14A
330
1F
100
AcDbEntity
  8
0
  6
Continuous
 62
     7
370
    25
100
AcDbPolyline
 90
       13
 70
   128
 43
0.0
 10
95.7967029554
 20
348.9566221787
 10
95.8605321886
 20
348.983875748
 10
96.5734471218
 20
349.0334931661
 10
97.8502905876
 20
349.0828748471
 10
100.1644971353
 20
349.1430100509
 10
103.1224645429
 20
349.2073271092
 10
106.3526194851
 20
349.2692342171
 10
109.583225585
 20
349.3310565806
 10
112.5473028658
 20
349.395400192
 10
114.8702354079
 20
349.4555423329
 10
116.4300403137
 20
349.5196538611
 10
117.0188715717
 20
349.5820808407
 10
116.9839607125
 20
349.5872405375
  0
LWPOLYLINE
  5
14B
330
1F
100
AcDbEntity
  8
0
  6
Continuous
 62
     7
370
    25
100
AcDbPolyline
 90
       13
 70
   128
 43
0.0
 10
95.7967239454
 20
350.2266311409
 10
95.8605321886
 20
350.253875748
 10
96.5734471218
 20
350.3034931661
 10
97.8502905876
 20
350.3528748471
 10
100.1644971353
 20
350.4130100509
 10
103.1224645429
 20
350.4773271092
 10
106.3526194851
 20
350.5392342171
 10
109.583225585
 20
350.6010565806
 10
112.5473028658
 20
350.665400192
 10
114.8702354079
 20
350.7255423329
 10
116.4300403137
 20
350.7896538611
 10
117.0188715717
 20
350.8520808407
 10
116.9839607125
 20
350.8572405375
  0
LWPOLYLINE
  5
14C
330
1F
100
AcDbEntity
  8
0
  6
Continuous
 62
     7
370
    25
100
AcDbPolyline
 90
       13
 70
   128
 43
0.0
 10
95.7967449403
 20
351.4966401052
 10
95.8605321886
 20
351.523875748
 10
96.5734471218
 20
351.5734931661
 10
97.8502905876
 20
351.6228748471
 10
100.1644971353
 20
351.6830100509
 10
103.1224645429
 20
351.7473271092
 10
106.3526194851
 20
351.8092342171
 10
109.583225585
 20
351.8710565806
 10
112.5473028658
 20
351.935400192
 10
114.8702354079
 20
351.9955423329
 10
116.4300403137
 20
352.0596538611
 10
117.0188715717
 20
352.1220808407
 10
116.9839607125
 20
352.1272405375
  0
ARC
  5
14D
330
1F
100
AcDbEntity
  8
0
  6
Continuous
 62
     7
370
    25
100
AcDbCircle
 10
112.3619788001
 20
-1.8368846423
 30
0.0
 40
354.9902426821137
100
AcDbArc
 50
90.4304146976
 51
92.6746131587
  0
LINE
  5
14E
330
1F
100
AcDbEntity
  8
0
  6
Continuous
 62
     7
370
    25
100
AcDbLine
 10
98.4003603322
 20
330.4297498455
 30
0.0
 11
97.8503028291
 21
330.0328748476
 31
0.0
  0
LWPOLYLINE
  5
14F
330
1F
100
AcDbEntity
  8
0
  6
Continuous
 62
     7
370
    25
100
AcDbPolyline
 90
       12
 70
   128
 43
0.0
 10
116.2947210545
 20
352.5238272572
 10
116.001043088
 20
352.4721007484
 10
114.8320021415
 20
352.4107760513
 10
112.9701770732
 20
352.3532724189
 10
110.5212727837
 20
352.2934778889
 10
107.6999229338
 20
352.2327075379
 10
104.8243785316
 20
352.175725173
 10
102.0190060924
 20
352.1147491061
 10
99.6116361384
 20
352.0553483534
 10
97.7499852771
 20
351.9956363705
 10
96.6472538524
 20
351.9324393583
 10
96.5136443174
 20
351.8939742305
  0
LWPOLYLINE
  5
150
330
1F
100
AcDbEntity
  8
0
  6
Continuous
 62
     7
370
    25
100
AcDbPolyline
 90
       12
 70
   128
 43
0.0
 10
116.2945657855
 20
351.2537999092
 10
116.001043088
 20
351.2021007484
 10
114.8320021415
 20
351.1407760513
 10
112.9701770732
 20
351.0832724189
 10
110.5212727837
 20
351.0234778889
 10
107.6999229338
 20
350.9627075379
 10
104.8243785316
 20
350.905725173
 10
102.0190060924
 20
350.8447491061
 10
99.6116361384
 20
350.7853483534
 10
97.7499852771
 20
350.7256363705
 10
96.6472538524
 20
350.6624393583
 10
96.5136291654
 20
350.6239698684
  0
LWPOLYLINE
  5
151
330
1F
100
AcDbEntity
  8
0
  6
Continuous
 62
     7
370
    25
100
AcDbPolyline
 90
       12
 70
   128
 43
0.0
 10
116.2944106917
 20
349.9837725919
 10
116.001043088
 20
349.9321007484
 10
114.8320021415
 20
349.8707760513
 10
112.9701770732
 20
349.8132724189
 10
110.5212727837
 20
349.7534778889
 10
107.6999229338
 20
349.6927075379
 10
104.8243785316
 20
349.635725173
 10
102.0190060924
 20
349.5747491061
 10
99.6116361384
 20
349.5153483534
 10
97.7499852771
 20
349.4556363705
 10
96.6472538524
 20
349.3924393583
 10
96.5136140025
 20
349.3539655031
  0
LWPOLYLINE
  5
152
330
1F
100
AcDbEntity
  8
0
  6
Continuous
 62
     7
370
    25
100
AcDbPolyline
 90
       12
 70
   128
 43
0.0
 10
116.2942557741
 20
348.7137453058
 10
116.001043088
 20
348.6621007484
 10
114.8320021415
 20
348.6007760513
 10
112.9701770732
 20
348.5432724189
 10
110.5212727837
 20
348.4834778889
 10
107.6999229338
 20
348.4227075379
 10
104.8243785316
 20
348.365725173
 10
102.0190060924
 20
348.3047491061
 10
99.6116361384
 20
348.2453483534
 10
97.7499852771
 20
348.1856363705
 10
96.6472538524
 20
348.1224393583
 10
96.5135988285
 20
348.0839611346
  0
LWPOLYLINE
  5
153
330
1F
100
AcDbEntity
  8
0
  6
Continuous
 62
     7
370
    25
100
AcDbPolyline
 90
       12
 70
   128
 43
0.0
 10
116.294101034
 20
347.4437180509
 10
116.001043088
 20
347.3921007484
 10
114.8320021415
 20
347.3307760513
 10
112.9701770732
 20
347.2732724189
 10
110.5212727837
 20
347.2134778889
 10
107.6999229338
 20
347.1527075379
 10
104.8243785316
 20
347.095725173
 10
102.0190060924
 20
347.0347491061
 10
99.6116361384
 20
346.9753483534
 10
97.7499852771
 20
346.9156363705
 10
96.6472538524
 20
346.8524393583
 10
96.5135836434
 20
346.8139567629
  0
LWPOLYLINE
  5
154
330
1F
100
AcDbEntity
  8
0
  6
Continuous
 62
     7
370
    25
100
AcDbPolyline
 90
       12
 70
   128
 43
0.0
 10
116.2939464726
 20
346.1736908274
 10
116.001043088
 20
346.1221007484
 10
114.8320021415
 20
346.0607760513
 10
112.9701770732
 20
346.0032724189
 10
110.5212727837
 20
345.9434778889
 10
107.6999229338
 20
345.8827075379
 10
104.8243785316
 20
345.825725173
 10
102.0190060924
 20
345.7647491061
 10
99.6116361384
 20
345.7053483534
 10
97.7499852771
 20
345.6456363705
 10
96.6472538524
 20
345.5824393583
 10
96.513568447
 20
345.543952388
  0
LWPOLYLINE
  5
155
330
1F
100
AcDbEntity
  8
0
  6
Continuous
 62
     7
370
    25
100
AcDbPolyline
 90
       12
 70
   128
 43
0.0
 10
116.293792091
 20
344.9036636357
 10
116.001043088
 20
344.8521007484
 10
114.8320021415
 20
344.7907760513
 10
112.9701770732
 20
344.7332724189
 10
110.5212727837
 20
344.6734778889
 10
107.6999229338
 20
344.6127075379
 10
104.8243785316
 20
344.555725173
 10
102.0190060924
 20
344.4947491061
 10
99.6116361384
 20
344.4353483534
 10
97.7499852771
 20
344.3756363705
 10
96.6472538524
 20
344.3124393583
 10
96.5135532392
 20
344.2739480098
  0
LWPOLYLINE
  5
156
330
1F
100
AcDbEntity
  8
0
  6
Continuous
 62
     7
370
    25
100
AcDbPolyline
 90
       12
 70
   128
 43
0.0
 10
116.2936378903
 20
343.6336364758
 10
116.001043088
 20
343.5821007484
 10
114.8320021415
 20
343.5207760513
 10
112.9701770732
 20
343.4632724189
 10
110.5212727837
 20
343.4034778889
 10
107.6999229338
 20
343.3427075379
 10
104.8243785316
 20
343.285725173
 10
102.0190060924
 20
343.2247491061
 10
99.6116361384
 20
343.1653483534
 10
97.7499852771
 20
343.1056363705
 10
96.6472538524
 20
343.0424393583
 10
96.51353802
 20
343.0039436283
  0
LWPOLYLINE
  5
157
330
1F
100
AcDbEntity
  8
0
  6
Continuous
 62
     7
370
    25
100
AcDbPolyline
 90
       12
 70
   128
 43
0.0
 10
116.2934838715
 20
342.3636093479
 10
116.001043088
 20
342.3121007484
 10
114.8320021415
 20
342.2507760513
 10
112.9701770732
 20
342.1932724189
 10
110.5212727837
 20
342.1334778889
 10
107.6999229338
 20
342.0727075379
 10
104.8243785316
 20
342.015725173
 10
102.0190060924
 20
341.9547491061
 10
99.6116361384
 20
341.8953483534
 10
97.7499852771
 20
341.8356363705
 10
96.6472538524
 20
341.7724393583
 10
96.513522789
 20
341.7339392435
  0
LWPOLYLINE
  5
158
330
1F
100
AcDbEntity
  8
0
  6
Continuous
 62
     7
370
    25
100
AcDbPolyline
 90
       12
 70
   128
 43
0.0
 10
116.2933300359
 20
341.0935822523
 10
116.001043088
 20
341.0421007484
 10
114.8320021415
 20
340.9807760513
 10
112.9701770732
 20
340.9232724189
 10
110.5212727837
 20
340.8634778889
 10
107.6999229338
 20
340.8027075379
 10
104.8243785316
 20
340.745725173
 10
102.0190060924
 20
340.6847491061
 10
99.6116361384
 20
340.6253483534
 10
97.7499852771
 20
340.5656363705
 10
96.6472538524
 20
340.5024393583
 10
96.5135075464
 20
340.4639348552
  0
LWPOLYLINE
  5
159
330
1F
100
AcDbEntity
  8
0
  6
Continuous
 62
     7
370
    25
100
AcDbPolyline
 90
       12
 70
   128
 43
0.0
 10
116.2931763843
 20
339.8235551891
 10
116.001043088
 20
339.7721007484
 10
114.8320021415
 20
339.7107760513
 10
112.9701770732
 20
339.6532724189
 10
110.5212727837
 20
339.5934778889
 10
107.6999229338
 20
339.5327075379
 10
104.8243785316
 20
339.475725173
 10
102.0190060924
 20
339.4147491061
 10
99.6116361384
 20
339.3553483534
 10
97.7499852771
 20
339.2956363705
 10
96.6472538524
 20
339.2324393583
 10
96.5134922918
 20
339.1939304636
  0
LWPOLYLINE
  5
15A
330
1F
100
AcDbEntity
  8
0
  6
Continuous
 62
     7
370
    25
100
AcDbPolyline
 90
       12
 70
   128
 43
0.0
 10
116.2930229177
 20
338.5535281585
 10
116.001043088
 20
338.5021007484
 10
114.8320021415
 20
338.4407760513
 10
112.9701770732
 20
338.3832724189
 10
110.5212727837
 20
338.3234778889
 10
107.6999229338
 20
338.2627075379
 10
104.8243785316
 20
338.205725173
 10
102.0190060924
 20
338.1447491061
 10
99.6116361384
 20
338.0853483534
 10
97.7499852771
 20
338.0256363705
 10
96.6472538524
 20
337.9624393583
 10
96.5134770253
 20
337.9239260684
  0
LWPOLYLINE
  5
15B
330
1F
100
AcDbEntity
  8
0
  6
Continuous
 62
     7
370
    25
100
AcDbPolyline
 90
       12
 70
   128
 43
0.0
 10
116.2928696372
 20
337.2835011607
 10
116.001043088
 20
337.2321007484
 10
114.8320021415
 20
337.1707760513
 10
112.9701770732
 20
337.1132724189
 10
110.5212727837
 20
337.0534778889
 10
107.6999229338
 20
336.9927075379
 10
104.8243785316
 20
336.935725173
 10
102.0190060924
 20
336.8747491061
 10
99.6116361384
 20
336.8153483534
 10
97.7499852771
 20
336.7556363705
 10
96.6472538524
 20
336.6924393583
 10
96.5134617467
 20
336.6539216698
  0
LWPOLYLINE
  5
15C
330
1F
100
AcDbEntity
  8
0
  6
Continuous
 62
     7
370
    25
100
AcDbPolyline
 90
       12
 70
   128
 43
0.0
 10
116.2927165437
 20
336.0134741958
 10
116.001043088
 20
335.9621007484
 10
114.8320021415
 20
335.9007760513
 10
112.9701770732
 20
335.8432724189
 10
110.5212727837
 20
335.7834778889
 10
107.6999229338
 20
335.7227075379
 10
104.8243785316
 20
335.665725173
 10
102.0190060924
 20
335.6047491061
 10
99.6116361384
 20
335.5453483534
 10
97.7499852771
 20
335.4856363705
 10
96.6472538524
 20
335.4224393583
 10
96.5134464558
 20
335.3839172677
  0
LWPOLYLINE
  5
15D
330
1F
100
AcDbEntity
  8
0
  6
Continuous
 62
     7
370
    25
100
AcDbPolyline
 90
       12
 70
   128
 43
0.0
 10
116.292563638
 20
334.743447264
 10
116.001043088
 20
334.6921007484
 10
114.8320021415
 20
334.6307760513
 10
112.9701770732
 20
334.5732724189
 10
110.5212727837
 20
334.5134778889
 10
107.6999229338
 20
334.4527075379
 10
104.8243785316
 20
334.395725173
 10
102.0190060924
 20
334.3347491061
 10
99.6116361384
 20
334.2753483534
 10
97.7499852771
 20
334.2156363705
 10
96.6472538524
 20
334.1524393583
 10
96.5134311525
 20
334.113912862
  0
LWPOLYLINE
  5
15E
330
1F
100
AcDbEntity
  8
0
  6
Continuous
 62
     7
370
    25
100
AcDbPolyline
 90
       12
 70
   128
 43
0.0
 10
116.2924109211
 20
333.4734203655
 10
116.001043088
 20
333.4221007484
 10
114.8320021415
 20
333.3607760513
 10
112.9701770732
 20
333.3032724189
 10
110.5212727837
 20
333.2434778889
 10
107.6999229338
 20
333.1827075379
 10
104.8243785316
 20
333.125725173
 10
102.0190060924
 20
333.0647491061
 10
99.6116361384
 20
333.0053483534
 10
97.7499852771
 20
332.9456363705
 10
96.6472538524
 20
332.8824393583
 10
96.5134158367
 20
332.8439084527
  0
LWPOLYLINE
  5
15F
330
1F
100
AcDbEntity
  8
0
  6
Continuous
 62
     7
370
    25
100
AcDbPolyline
 90
       12
 70
   128
 43
0.0
 10
116.2922583938
 20
332.2033935003
 10
116.001043088
 20
332.1521007484
 10
114.8320021415
 20
332.0907760513
 10
112.9701770732
 20
332.0332724189
 10
110.5212727837
 20
331.9734778889
 10
107.6999229338
 20
331.9127075379
 10
104.8243785316
 20
331.855725173
 10
102.0190060924
 20
331.7947491061
 10
99.6116361384
 20
331.7353483534
 10
97.7499852771
 20
331.6756363705
 10
96.6472538524
 20
331.6124393583
 10
96.5134005083
 20
331.5739040398
  0
LWPOLYLINE
  5
160
330
1F
100
AcDbEntity
  8
0
  6
Continuous
 62
     7
370
    25
100
AcDbPolyline
 90
       10
 70
   128
 43
0.0
 10
116.292106057
 20
330.9333666687
 10
116.001043088
 20
330.8821007484
 10
114.8320021415
 20
330.8207760513
 10
112.9701770732
 20
330.7632724189
 10
110.5212727837
 20
330.7034778889
 10
107.6999229338
 20
330.6427075379
 10
104.8243785316
 20
330.585725173
 10
102.0190060924
 20
330.5247491061
 10
99.6116361384
 20
330.4653483534
 10
98.4003576564
 20
330.4297498454
  0
LINE
  5
161
330
1F
100
AcDbEntity
  8
0
  6
Continuous
 62
     7
370
    25
100
AcDbLine
 10
109.6952626443
 20
353.143341602
 30
0.0
 11
96.3925612199
 21
353.143341602
 31
0.0
  0
ARC
  5
162
330
1F
100
AcDbEntity
  8
0
  6
Continuous
 62
     7
370
    25
100
AcDbCircle
 10
108.7927452512
 20
212.1231887815
 30
0.0
 40
124.9798489732254
100
AcDbArc
 50
269.9902928925
 51
273.7755699288
  0
LWPOLYLINE
  5
163
330
1F
100
AcDbEntity
  8
0
  6
Continuous
 62
     7
370
    25
100
AcDbPolyline
 90
        6
 70
   128
 43
0.0
 10
95.7884040931
 20
88.0493787156
 10
95.7338654508
 20
88.0585372345
 10
96.4270903202
 20
88.1233873939
 10
98.1364223054
 20
88.189073953
 10
100.6370378995
 20
88.2513988529
 10
100.7462329765
 20
88.2538768616
  0
LWPOLYLINE
  5
164
330
1F
100
AcDbEntity
  8
0
  6
Continuous
 62
     7
370
    25
100
AcDbPolyline
 90
        5
 70
   128
 43
0.0
 10
96.4723969084
 20
87.6523528139
 10
96.4205378579
 20
87.6616622363
 10
97.0690183061
 20
87.7265123956
 10
98.6680209108
 20
87.7921989548
 10
100.7462233702
 20
87.8475696219
  0
LINE
  5
165
330
1F
100
AcDbEntity
  8
0
  6
Continuous
 62
     7
370
    25
100
AcDbLine
 10
97.8503028289
 20
330.0328749868
 30
0.0
 11
97.8502893229
 21
331.1441251222
 31
0.0
  0
LINE
  5
166
330
1F
100
AcDbEntity
  8
0
  6
Continuous
 62
     7
370
    25
100
AcDbLine
 10
100.7462168743
 20
88.2538768614
 30
0.0
 11
100.7462346405
 21
87.1426269027
 31
0.0
  0
LINE
  5
167
330
1F
100
AcDbEntity
  8
0
  6
Continuous
 62
     7
370
    25
100
AcDbLine
 10
109.6952626443
 20
353.143341602
 30
0.0
 11
115.8721648855
 21
353.143341602
 31
0.0
  0
LINE
  5
168
330
1F
100
AcDbEntity
  8
0
  6
Continuous
 62
     7
370
    25
100
AcDbLine
 10
98.4003564733
 20
330.7472498056
 30
0.0
 11
98.4003603322
 21
330.4297498057
 31
0.0
  0
LINE
  5
169
330
1F
100
AcDbEntity
  8
0
  6
Continuous
 62
     7
370
    25
100
AcDbLine
 10
90.335066505
 20
58.697841602
 30
0.0
 11
90.335066505
 21
63.588841602
 31
0.0
  0
LINE
  5
16A
330
1F
100
AcDbEntity
  8
0
  6
Continuous
 62
     7
370
    25
100
AcDbLine
 10
90.6552072292
 20
58.143341602
 30
0.0
 11
90.6552072292
 21
64.143341602
 31
0.0
  0
LINE
  5
16B
330
1F
100
AcDbEntity
  8
0
  6
Continuous
 62
     7
370
    25
100
AcDbLine
 10
106.3724741662
 20
86.143341602
 30
0.0
 11
91.3724741662
 21
86.143341602
 31
0.0
  0
LINE
  5
16C
330
1F
100
AcDbEntity
  8
0
  6
Continuous
 62
     7
370
    25
100
AcDbLine
 10
121.3724741662
 20
86.143341602
 30
0.0
 11
106.3724741662
 21
86.143341602
 31
0.0
  0
LINE
  5
16D
330
1F
100
AcDbEntity
  8
0
  6
Continuous
 62
     7
370
    25
100
AcDbLine
 10
106.3724741662
 20
87.143341602
 30
0.0
 11
120.3724741662
 21
87.143341602
 31
0.0
  0
LINE
  5
16E
330
1F
100
AcDbEntity
  8
0
  6
Continuous
 62
     7
370
    25
100
AcDbLine
 10
92.3724741662
 20
87.143341602
 30
0.0
 11
106.3724741662
 21
87.143341602
 31
0.0
  0
LINE
  5
16F
330
1F
100
AcDbEntity
  8
0
  6
Continuous
 62
     7
370
    25
100
AcDbLine
 10
106.3724741662
 20
54.143341602
 30
0.0
 11
121.3724741662
 21
54.143341602
 31
0.0
  0
LINE
  5
170
330
1F
100
AcDbEntity
  8
0
  6
Continuous
 62
     7
370
    25
100
AcDbLine
 10
91.3724741662
 20
54.143341602
 30
0.0
 11
106.3724741662
 21
54.143341602
 31
0.0
  0
LWPOLYLINE
  5
171
330
1F
100
AcDbEntity
  8
0
  6
Continuous
 62
     7
370
    25
100
AcDbPolyline
 90
       13
 70
   128
 43
0.0
 10
91.3725946435
 20
63.9811935101
 10
91.372474513
 20
63.9818153477
 10
91.4145070011
 20
63.764216786
 10
91.5156635566
 20
63.1492594675
 10
91.6174323634
 20
62.2299362375
 10
91.6488941588
 20
61.6962647778
 10
91.6599030594
 20
61.1414329943
 10
91.6487735039
 20
60.5873956253
 10
91.6171669139
 20
60.0533516505
 10
91.5152977543
 20
59.1348693465
 10
91.4142760091
 20
58.5212229838
 10
91.3724741662
 20
58.3048661276
 10
91.3724741662
 20
58.3048661276
  0
LINE
  5
172
330
1F
100
AcDbEntity
  8
0
  6
Continuous
 62
     7
370
    25
100
AcDbLine
 10
106.3724741662
 20
53.143341602
 30
0.0
 11
92.3724741662
 21
53.143341602
 31
0.0
  0
LINE
  5
173
330
1F
100
AcDbEntity
  8
0
  6
Continuous
 62
     7
370
    25
100
AcDbLine
 10
120.3724741662
 20
53.143341602
 30
0.0
 11
106.3724741662
 21
53.143341602
 31
0.0
  0
LINE
  5
174
330
1F
100
AcDbEntity
  8
0
  6
Continuous
 62
     7
370
    25
100
AcDbLine
 10
90.6552072292
 20
383.022173316
 30
0.0
 11
91.6755357095
 21
383.022173316
 31
0.0
  0
LINE
  5
175
330
1F
100
AcDbEntity
  8
0
  6
Continuous
 62
     7
370
    25
100
AcDbLine
 10
91.6755357095
 20
389.022173316
 30
0.0
 11
90.6552072292
 21
389.022173316
 31
0.0
  0
LINE
  5
176
330
1F
100
AcDbEntity
  8
0
  6
Continuous
 62
     7
370
    25
100
AcDbLine
 10
90.6552072292
 20
389.022173316
 30
0.0
 11
90.335066505
 21
388.467673316
 31
0.0
  0
LINE
  5
177
330
1F
100
AcDbEntity
  8
0
  6
Continuous
 62
     7
370
    25
100
AcDbLine
 10
90.335066505
 20
383.576673316
 30
0.0
 11
90.6552072292
 21
383.022173316
 31
0.0
  0
LINE
  5
178
330
1F
100
AcDbEntity
  8
0
  6
Continuous
 62
     7
370
    25
100
AcDbLine
 10
90.6552072292
 20
386.9605100835
 30
0.0
 11
90.6552072292
 21
389.022173316
 31
0.0
  0
LINE
  5
179
330
1F
100
AcDbEntity
  8
0
  6
Continuous
 62
     7
370
    25
100
AcDbLine
 10
90.6552072292
 20
383.022173316
 30
0.0
 11
90.6552072292
 21
386.9605100835
 31
0.0
  0
LINE
  5
17A
330
1F
100
AcDbEntity
  8
0
  6
Continuous
 62
     7
370
    25
100
AcDbLine
 10
90.335066505
 20
386.787074171
 30
0.0
 11
90.335066505
 21
388.467673316
 31
0.0
  0
LINE
  5
17B
330
1F
100
AcDbEntity
  8
0
  6
Continuous
 62
     7
370
    25
100
AcDbLine
 10
90.335066505
 20
383.576673316
 30
0.0
 11
90.335066505
 21
386.787074171
 31
0.0
  0
CIRCLE
  5
17C
330
1F
100
AcDbEntity
  8
0
  6
Continuous
 62
     7
370
    25
100
AcDbCircle
 10
106.3724741662
 20
386.022173316
 30
0.0
 40
7.649999999999991
  0
ARC
  5
17D
330
1F
100
AcDbEntity
  8
0
  6
Continuous
 62
     7
370
    25
100
AcDbCircle
 10
106.2871370548
 20
386.5367232697
 30
0.0
 40
9.667476424861684
100
AcDbArc
 50
330.6856386446
 51
53.5114594302
  0
ARC
  5
17E
330
1F
100
AcDbEntity
  8
0
  6
Continuous
 62
     7
370
    25
100
AcDbCircle
 10
106.3724741662
 20
386.022173316
 30
0.0
 40
9.349999999999998
100
AcDbArc
 50
333.1797359459
 51
63.1797369068
  0
LWPOLYLINE
  5
17F
330
1F
100
AcDbEntity
  8
0
  6
Continuous
 62
     7
370
    25
100
AcDbPolyline
 90
       72
 70
   128
 43
0.0
 10
116.2369750338
 20
387.8772137983
 10
116.2369923839
 20
387.8771145439
 10
116.2372698497
 20
387.8755264501
 10
116.2394804178
 20
387.8628201
 10
116.2438526967
 20
387.8373989306
 10
116.2764845321
 20
387.6336290257
 10
116.3291901476
 20
387.224209545
 10
116.3840552598
 20
386.3999127557
 10
116.3860822567
 20
385.9875445147
 10
116.33875917
 20
385.1607894925
 10
116.2207892428
 20
384.3291574259
 10
116.0299680145
 20
383.4986922325
 10
115.907499927
 20
383.0884726932
 10
115.7737877728
 20
382.7008653931
 10
115.4576318799
 20
381.9406069362
 10
115.0739845053
 20
381.198900715
 10
114.6227770553
 20
380.48207322
 10
114.3735701565
 20
380.137152812
 10
114.1208535981
 20
379.8165365261
 10
113.5746868556
 20
379.2052035912
 10
112.971253929
 20
378.6333222753
 10
112.3121705056
 20
378.1072035924
 10
111.9647506699
 20
377.8646805987
 10
111.6212625496
 20
377.6458232801
 10
110.9055200252
 20
377.249994265
 10
110.1485818645
 20
376.9104952097
 10
109.3543282497
 20
376.6323325635
 10
108.9471577037
 20
376.5184363877
 10
107.7540429328
 20
376.2893660496
 10
106.9343312925
 20
376.2184252736
 10
106.0998624628
 20
376.2165563221
 10
105.6814367151
 20
376.2424440068
 10
104.4794252964
 20
376.4186177962
 10
103.6820046609
 20
376.6222004338
 10
102.8934689192
 20
376.8966248423
 10
102.5069691865
 20
377.0596582597
 10
101.4404998347
 20
377.6180800396
 10
100.7611609219
 20
378.0688482198
 10
100.1130195301
 20
378.582311424
 10
99.8044775669
 20
378.8604467911
 10
98.9813685996
 20
379.7369288073
 10
98.4886699672
 20
380.3855128753
 10
98.0464714001
 20
381.0835073176
 10
97.8472836305
 20
381.4477330632
 10
97.3630288774
 20
382.5407777426
 10
97.1135332848
 20
383.3111298686
 10
96.9272692428
 20
384.111074699
 10
96.8595374518
 20
384.518110525
 10
96.7621767731
 20
385.7040440734
 10
96.7795756249
 20
386.5097696002
 10
96.8664315714
 20
387.32263071
 10
96.9361993151
 20
387.7273779316
 10
97.2349049618
 20
388.8765039301
 10
97.5171245264
 20
389.6296511715
 10
97.8670687771
 20
390.3666852526
 10
98.066249153
 20
390.7249477062
 10
98.7217186452
 20
391.70293373
 10
99.2315629274
 20
392.3159354468
 10
99.7990116831
 20
392.892041885
 10
100.1020086405
 20
393.162648438
 10
101.0425964045
 20
393.8706645415
 10
101.7263217743
 20
394.2812706378
 10
102.4527957617
 20
394.6374738787
 10
102.8285271047
 20
394.7926255593
 10
103.9399505883
 20
395.1467137859
 10
104.7133985251
 20
395.3074990627
 10
105.9106186601
 20
395.427086734
 10
107.0778557813
 20
395.3966427522
 10
107.8602011633
 20
395.2939174733
 10
109.0259492873
 20
395.0125464764
 10
109.8207694463
 20
394.7259207547
 10
110.591130421
 20
394.3663592802
  0
ARC
  5
180
330
1F
100
AcDbEntity
  8
0
  6
Continuous
 62
     7
370
    25
100
AcDbCircle
 10
106.3724741662
 20
386.022173316
 30
0.0
 40
10.03740766124986
100
AcDbArc
 50
10.6502130226
 51
55.6502130226
  0
CIRCLE
  5
181
330
1F
100
AcDbEntity
  8
0
  6
Continuous
 62
     7
370
    25
100
AcDbCircle
 10
106.3724741662
 20
386.022173316
 30
0.0
 40
10.35000000000002
  0
CIRCLE
  5
182
330
1F
100
AcDbEntity
  8
0
  6
Continuous
 62
     7
370
    25
100
AcDbCircle
 10
106.3724741662
 20
386.022173316
 30
0.0
 40
14.0
  0
CIRCLE
  5
183
330
1F
100
AcDbEntity
  8
0
  6
Continuous
 62
     7
370
    25
100
AcDbCircle
 10
106.3724741662
 20
386.022173316
 30
0.0
 40
15.0
  0
ARC
  5
184
330
1F
100
AcDbEntity
  8
0
  6
Continuous
 62
     7
370
    25
100
AcDbCircle
 10
106.3719759613
 20
386.0197007569
 30
0.0
 40
9.349329325436937
100
AcDbArc
 50
66.0025076355
 51
333.194636145
  0
ARC
  5
185
330
1F
100
AcDbEntity
  8
0
  6
Continuous
 62
     7
370
    25
100
AcDbCircle
 10
106.3724741664
 20
386.022173316
 30
0.0
 40
9.350000000163947
100
AcDbArc
 50
166.4585884026
 51
167.7437917097
  0
LINE
  5
186
330
1F
100
AcDbEntity
  8
0
  6
Continuous
 62
     7
370
    25
100
AcDbLine
 10
97.362722597
 20
388.52154857
 30
0.0
 11
97.5247606654
 21
388.9578160371
 31
0.0
  0
LINE
  5
187
330
1F
100
AcDbEntity
  8
0
  6
Continuous
 62
     7
370
    25
100
AcDbLine
 10
97.3804242957
 20
383.4752044608
 30
0.0
 11
97.294556149
 21
383.7829983626
 31
0.0
  0
LINE
  5
188
330
1F
100
AcDbEntity
  8
0
  6
Continuous
 62
     7
370
    25
100
AcDbLine
 10
97.0797759545
 20
385.0722538246
 30
0.0
 11
97.0444021962
 21
385.3821941581
 31
0.0
  0
LWPOLYLINE
  5
189
330
1F
100
AcDbEntity
  8
0
  6
Continuous
 62
     7
370
    25
100
AcDbPolyline
 90
        3
 70
   128
 43
0.0
 10
97.0380290956
 20
386.561279265
 10
97.219459625
 20
387.9313157435
 10
97.2237980236
 20
387.946366553
  0
LINE
  5
18A
330
1F
100
AcDbEntity
  8
0
  6
Continuous
 62
     7
370
    25
100
AcDbLine
 10
90.6552072292
 20
21.0063565496
 30
0.0
 11
91.6755357095
 21
21.0063565496
 31
0.0
  0
LINE
  5
18B
330
1F
100
AcDbEntity
  8
0
  6
Continuous
 62
     7
370
    25
100
AcDbLine
 10
91.6755357095
 20
27.0063565496
 30
0.0
 11
90.6552072292
 21
27.0063565496
 31
0.0
  0
LINE
  5
18C
330
1F
100
AcDbEntity
  8
0
  6
Continuous
 62
     7
370
    25
100
AcDbLine
 10
90.6552072292
 20
27.0063565496
 30
0.0
 11
90.335066505
 21
26.4518565496
 31
0.0
  0
LINE
  5
18D
330
1F
100
AcDbEntity
  8
0
  6
Continuous
 62
     7
370
    25
100
AcDbLine
 10
90.335066505
 20
21.5608565496
 30
0.0
 11
90.6552072292
 21
21.0063565496
 31
0.0
  0
LINE
  5
18E
330
1F
100
AcDbEntity
  8
0
  6
Continuous
 62
     7
370
    25
100
AcDbLine
 10
90.6552072292
 20
21.0063565496
 30
0.0
 11
90.6552072292
 21
27.0063565496
 31
0.0
  0
LINE
  5
18F
330
1F
100
AcDbEntity
  8
0
  6
Continuous
 62
     7
370
    25
100
AcDbLine
 10
90.335066505
 20
21.5608565496
 30
0.0
 11
90.335066505
 21
26.4518565496
 31
0.0
  0
ARC
  5
190
330
1F
100
AcDbEntity
  8
0
  6
Continuous
 62
     7
370
    25
100
AcDbCircle
 10
106.6957308485
 20
23.7498476994
 30
0.0
 40
10.30794147319176
100
AcDbArc
 50
174.1225395615
 51
286.9173740639
  0
ARC
  5
191
330
1F
100
AcDbEntity
  8
0
  6
Continuous
 62
     7
370
    25
100
AcDbCircle
 10
106.3400797981
 20
23.9886909653
 30
0.0
 40
10.64338511039684
100
AcDbArc
 50
334.8632180981
 51
288.3750881285
  0
CIRCLE
  5
192
330
1F
100
AcDbEntity
  8
0
  6
Continuous
 62
     7
370
    25
100
AcDbCircle
 10
106.3724741662
 20
24.0063565496
 30
0.0
 40
7.649999999999991
  0
ARC
  5
193
330
1F
100
AcDbEntity
  8
0
  6
Continuous
 62
     7
370
    25
100
AcDbCircle
 10
106.3724741662
 20
24.0063565496
 30
0.0
 40
10.65
100
AcDbArc
 50
288.1797359459
 51
333.1797369068
  0
ARC
  5
194
330
1F
100
AcDbEntity
  8
0
  6
Continuous
 62
     7
370
    25
100
AcDbCircle
 10
106.3724741662
 20
24.0063565496
 30
0.0
 40
9.96259233875001
100
AcDbArc
 50
85.3997243503
 51
175.3997243503
  0
ARC
  5
195
330
1F
100
AcDbEntity
  8
0
  6
Continuous
 62
     7
370
    25
100
AcDbCircle
 10
106.5971188743
 20
23.6582886023
 30
0.0
 40
10.29460245713385
100
AcDbArc
 50
334.3445154614
 51
86.8014936112
  0
LINE
  5
196
330
1F
100
AcDbEntity
  8
0
  6
Continuous
 62
     7
370
    25
100
AcDbLine
 10
100.232166851
 20
15.3118535284
 30
0.0
 11
100.7462346405
 21
14.9637944791
 31
0.0
  0
CIRCLE
  5
197
330
1F
100
AcDbEntity
  8
0
  6
Continuous
 62
     7
370
    25
100
AcDbCircle
 10
106.3724741662
 20
24.0063565496
 30
0.0
 40
15.0
  0
CIRCLE
  5
198
330
1F
100
AcDbEntity
  8
0
  6
Continuous
 62
     7
370
    25
100
AcDbCircle
 10
106.3724741662
 20
24.0063565496
 30
0.0
 40
13.99999999999998
  0
ENDSEC
  0
SECTION
  2
OBJECTS
  0
DICTIONARY
  5
C
330
0
100
AcDbDictionary
281
     1
  3
ACAD_DETAILVIEWSTYLE
350
1A0
  3
ACAD_GROUP
350
D
  3
ACAD_LAYOUT
350
1A
  3
ACAD_MATERIAL
350
43
  3
ACAD_MLEADERSTYLE
350
6B
  3
ACAD_MLINESTYLE
350
17
  3
ACAD_PLOTSETTINGS
350
19
  3
ACAD_PLOTSTYLENAME
350
E
  3
ACAD_SCALELIST
350
47
  3
ACAD_SECTIONVIEWSTYLE
350
1A1
  3
ACAD_TABLESTYLE
350
69
  3
ACAD_VISUALSTYLE
350
2A
  3
ACDB_RECOMPOSE_DATA
350
19D
  3
AcDbVariableDictionary
350
199
  0
SUN
  5
6D
330
29
100
AcDbSun
 90
        1
290
     0
 63
     7
421
 16777215
 40
1.0
291
     1
 91
  2455826
 92
 54000000
292
     0
 70
     2
 71
   256
280
     1
  0
DICTIONARY
  5
1A0
102
{ACAD_REACTORS
330
C
102
}
330
C
100
AcDbDictionary
281
     1
  0
DICTIONARY
  5
D
102
{ACAD_REACTORS
330
C
102
}
330
C
100
AcDbDictionary
281
     1
  0
DICTIONARY
  5
1A
102
{ACAD_REACTORS
330
C
102
}
330
C
100
AcDbDictionary
281
     1
  3
Layout1
350
1E
  3
Layout2
350
26
  3
Model
350
22
  0
DICTIONARY
  5
43
102
{ACAD_REACTORS
330
C
102
}
330
C
100
AcDbDictionary
281
     1
  3
ByBlock
350
45
  3
ByLayer
350
44
  3
Global
350
46
  0
DICTIONARY
  5
6B
102
{ACAD_REACTORS
330
C
102
}
330
C
100
AcDbDictionary
281
     1
  3
Standard
350
6C
  0
DICTIONARY
  5
17
102
{ACAD_REACTORS
330
C
102
}
330
C
100
AcDbDictionary
281
     1
  3
Standard
350
18
  0
DICTIONARY
  5
19
102
{ACAD_REACTORS
330
C
102
}
330
C
100
AcDbDictionary
281
     1
  0
ACDBDICTIONARYWDFLT
  5
E
102
{ACAD_REACTORS
330
C
102
}
330
C
100
AcDbDictionary
281
     1
  3
Normal
350
F
100
AcDbDictionaryWithDefault
340
F
  0
DICTIONARY
  5
47
102
{ACAD_REACTORS
330
C
102
}
330
C
100
AcDbDictionary
281
     1
  3
A0
350
48
  3
A1
350
49
  3
A2
350
4A
  3
A3
350
4B
  3
A4
350
4C
  3
A5
350
4D
  3
A6
350
4E
  3
A7
350
4F
  3
A8
350
50
  3
A9
350
51
  3
B0
350
52
  3
B1
350
53
  3
B2
350
54
  3
B3
350
55
  3
B4
350
56
  3
B5
350
57
  3
B6
350
58
  3
B7
350
59
  3
B8
350
5A
  3
B9
350
5B
  3
C0
350
5C
  3
C1
350
5D
  3
C2
350
5E
  3
C3
350
5F
  3
C4
350
60
  3
C5
350
61
  3
C6
350
62
  3
C7
350
63
  3
C8
350
64
  3
C9
350
65
  3
D0
350
66
  3
D1
350
67
  3
D2
350
68
  0
DICTIONARY
  5
1A1
102
{ACAD_REACTORS
330
C
102
}
330
C
100
AcDbDictionary
281
     1
  0
DICTIONARY
  5
69
102
{ACAD_REACTORS
330
C
102
}
330
C
100
AcDbDictionary
281
     1
  3
Standard
350
6A
  0
DICTIONARY
  5
2A
102
{ACAD_REACTORS
330
C
102
}
330
C
100
AcDbDictionary
281
     1
  3
2dWireframe
350
2F
  3
Basic
350
32
  3
Brighten
350
36
  3
ColorChange
350
3A
  3
Conceptual
350
34
  3
Dim
350
35
  3
EdgeColorOff
350
3D
  3
Facepattern
350
39
  3
Flat
350
2B
  3
FlatWithEdges
350
2C
  3
Gouraud
350
2D
  3
GouraudWithEdges
350
2E
  3
Hidden
350
31
  3
JitterOff
350
3B
  3
Linepattern
350
38
  3
OverhangOff
350
3C
  3
Realistic
350
33
  3
Shaded
350
42
  3
Shaded with edges
350
41
  3
Shades of Gray
350
3E
  3
Sketchy
350
3F
  3
Thicken
350
37
  3
Wireframe
350
30
  3
X-Ray
350
40
  0
XRECORD
  5
19D
102
{ACAD_REACTORS
330
C
102
}
330
C
100
AcDbXrecord
280
     1
 90
        1
330
6A
  0
DICTIONARY
  5
199
102
{ACAD_REACTORS
330
C
102
}
330
C
100
AcDbDictionary
281
     1
  3
CANNOSCALE
350
19A
  3
CENTEREXE
350
1A2
  3
CENTERLTYPEFILE
350
1A3
  3
CMLEADERSTYLE
350
19F
  3
CTABLESTYLE
350
19E
  0
LAYOUT
  5
1E
102
{ACAD_REACTORS
330
1A
102
}
330
1A
100
AcDbPlotSettings
  1

  2
none_device
  4

  6

 40
0.0
 41
0.0
 42
0.0
 43
0.0
 44
0.0
 45
0.0
 46
0.0
 47
0.0
 48
0.0
 49
0.0
140
0.0
141
0.0
142
1.0
143
1.0
 70
   688
 72
     1
 73
     0
 74
     5
  7

 75
    16
 76
     0
 77
     2
 78
   300
147
1.0
148
0.0
149
0.0
100
AcDbLayout
  1
Layout1
 70
     1
 71
     1
 10
0.0
 20
0.0
 11
420.0
 21
297.0
 12
0.0
 22
0.0
 32
0.0
 14
1.0000000000E+20
 24
1.0000000000E+20
 34
1.0000000000E+20
 15
-1.0000000000E+20
 25
-1.0000000000E+20
 35
-1.0000000000E+20
146
0.0
 13
0.0
 23
0.0
 33
0.0
 16
1.0
 26
0.0
 36
0.0
 17
0.0
 27
1.0
 37
0.0
 76
     0
330
1B
  0
LAYOUT
  5
26
102
{ACAD_REACTORS
330
1A
102
}
330
1A
100
AcDbPlotSettings
  1

  2
none_device
  4

  6

 40
0.0
 41
0.0
 42
0.0
 43
0.0
 44
0.0
 45
0.0
 46
0.0
 47
0.0
 48
0.0
 49
0.0
140
0.0
141
0.0
142
1.0
143
1.0
 70
   688
 72
     1
 73
     0
 74
     5
  7

 75
    16
 76
     0
 77
     2
 78
   300
147
1.0
148
0.0
149
0.0
100
AcDbLayout
  1
Layout2
 70
     1
 71
     2
 10
0.0
 20
0.0
 11
0.0
 21
0.0
 12
0.0
 22
0.0
 32
0.0
 14
0.0
 24
0.0
 34
0.0
 15
0.0
 25
0.0
 35
0.0
146
0.0
 13
0.0
 23
0.0
 33
0.0
 16
1.0
 26
0.0
 36
0.0
 17
0.0
 27
1.0
 37
0.0
 76
     0
330
23
  0
LAYOUT
  5
22
102
{ACAD_REACTORS
330
1A
102
}
330
1A
100
AcDbPlotSettings
  1

  2
none_device
  4
Letter_(8.50_x_11.00_Inches)
  6

 40
6.35
 41
6.35
 42
6.35000508
 43
6.35000508
 44
215.9
 45
279.4
 46
0.0
 47
0.0
 48
0.0
 49
0.0
140
0.0
141
0.0
142
1.0
143
1.0
 70
  1712
 72
     1
 73
     0
 74
     0
  7

 75
     0
 76
     0
 77
     2
 78
   300
147
1.0
148
0.0
149
0.0
100
AcDbLayout
  1
Model
 70
     1
 71
     0
 10
0.0
 20
0.0
 11
210.0
 21
420.0
 12
0.0
 22
0.0
 32
0.0
 14
0.0
 24
0.0
 34
0.0
 15
210.0
 25
420.0
 35
0.0
146
0.0
 13
0.0
 23
0.0
 33
0.0
 16
1.0
 26
0.0
 36
0.0
 17
0.0
 27
1.0
 37
0.0
 76
     0
330
1F
331
29
  0
MATERIAL
  5
45
102
{ACAD_REACTORS
330
43
102
}
330
43
100
AcDbMaterial
  1
ByBlock
 72
     1
 94
      127
  0
MATERIAL
  5
44
102
{ACAD_REACTORS
330
43
102
}
330
43
100
AcDbMaterial
  1
ByLayer
 72
     1
 94
      127
  0
MATERIAL
  5
46
102
{ACAD_REACTORS
330
43
102
}
330
43
100
AcDbMaterial
  1
Global
 72
     1
 94
      127
  0
MLEADERSTYLE
  5
6C
102
{ACAD_REACTORS
330
6B
102
}
330
6B
100
AcDbMLeaderStyle
179
     2
170
     2
171
     1
172
     0
 90
        2
 40
0.0
 41
0.0
173
     1
 91
-1056964608
340
14
 92
       -2
290
     1
 42
2.0
291
     1
 43
8.0
  3
Standard
341
0
 44
4.0
300

342
11
174
     1
178
     6
175
     1
176
     0
 93
-1056964608
 45
4.0
292
     0
297
     0
 46
4.0
343
0
 94
-1056964608
 47
1.0
 49
1.0
140
1.0
293
     1
141
0.0
294
     1
177
     0
142
1.0
295
     0
296
     0
143
3.75
271
     0
272
     9
273
     9
298
     0
  0
MLINESTYLE
  5
18
102
{ACAD_REACTORS
330
17
102
}
330
17
100
AcDbMlineStyle
  2
Standard
 70
     0
  3

 62
   256
 51
90.0
 52
90.0
 71
     2
 49
0.5
 62
   256
  6
BYLAYER
 49
-0.5
 62
   256
  6
BYLAYER
  0
ACDBPLACEHOLDER
  5
F
102
{ACAD_REACTORS
330
E
102
}
330
E
  0
SCALE
  5
48
102
{ACAD_REACTORS
330
47
102
}
330
47
100
AcDbScale
 70
     0
300
1:1
140
1.0
141
1.0
290
     1
  0
SCALE
  5
49
102
{ACAD_REACTORS
330
47
102
}
330
47
100
AcDbScale
 70
     0
300
1:2
140
1.0
141
2.0
290
     0
  0
SCALE
  5
4A
102
{ACAD_REACTORS
330
47
102
}
330
47
100
AcDbScale
 70
     0
300
1:4
140
1.0
141
4.0
290
     0
  0
SCALE
  5
4B
102
{ACAD_REACTORS
330
47
102
}
330
47
100
AcDbScale
 70
     0
300
1:5
140
1.0
141
5.0
290
     0
  0
SCALE
  5
4C
102
{ACAD_REACTORS
330
47
102
}
330
47
100
AcDbScale
 70
     0
300
1:8
140
1.0
141
8.0
290
     0
  0
SCALE
  5
4D
102
{ACAD_REACTORS
330
47
102
}
330
47
100
AcDbScale
 70
     0
300
1:10
140
1.0
141
10.0
290
     0
  0
SCALE
  5
4E
102
{ACAD_REACTORS
330
47
102
}
330
47
100
AcDbScale
 70
     0
300
1:16
140
1.0
141
16.0
290
     0
  0
SCALE
  5
4F
102
{ACAD_REACTORS
330
47
102
}
330
47
100
AcDbScale
 70
     0
300
1:20
140
1.0
141
20.0
290
     0
  0
SCALE
  5
50
102
{ACAD_REACTORS
330
47
102
}
330
47
100
AcDbScale
 70
     0
300
1:30
140
1.0
141
30.0
290
     0
  0
SCALE
  5
51
102
{ACAD_REACTORS
330
47
102
}
330
47
100
AcDbScale
 70
     0
300
1:40
140
1.0
141
40.0
290
     0
  0
SCALE
  5
52
102
{ACAD_REACTORS
330
47
102
}
330
47
100
AcDbScale
 70
     0
300
1:50
140
1.0
141
50.0
290
     0
  0
SCALE
  5
53
102
{ACAD_REACTORS
330
47
102
}
330
47
100
AcDbScale
 70
     0
300
1:100
140
1.0
141
100.0
290
     0
  0
SCALE
  5
54
102
{ACAD_REACTORS
330
47
102
}
330
47
100
AcDbScale
 70
     0
300
2:1
140
2.0
141
1.0
290
     0
  0
SCALE
  5
55
102
{ACAD_REACTORS
330
47
102
}
330
47
100
AcDbScale
 70
     0
300
4:1
140
4.0
141
1.0
290
     0
  0
SCALE
  5
56
102
{ACAD_REACTORS
330
47
102
}
330
47
100
AcDbScale
 70
     0
300
8:1
140
8.0
141
1.0
290
     0
  0
SCALE
  5
57
102
{ACAD_REACTORS
330
47
102
}
330
47
100
AcDbScale
 70
     0
300
10:1
140
10.0
141
1.0
290
     0
  0
SCALE
  5
58
102
{ACAD_REACTORS
330
47
102
}
330
47
100
AcDbScale
 70
     0
300
100:1
140
100.0
141
1.0
290
     0
  0
SCALE
  5
59
102
{ACAD_REACTORS
330
47
102
}
330
47
100
AcDbScale
 70
     0
300
1/128" = 1'-0"
140
0.0078125
141
12.0
290
     0
  0
SCALE
  5
5A
102
{ACAD_REACTORS
330
47
102
}
330
47
100
AcDbScale
 70
     0
300
1/64" = 1'-0"
140
0.015625
141
12.0
290
     0
  0
SCALE
  5
5B
102
{ACAD_REACTORS
330
47
102
}
330
47
100
AcDbScale
 70
     0
300
1/32" = 1'-0"
140
0.03125
141
12.0
290
     0
  0
SCALE
  5
5C
102
{ACAD_REACTORS
330
47
102
}
330
47
100
AcDbScale
 70
     0
300
1/16" = 1'-0"
140
0.0625
141
12.0
290
     0
  0
SCALE
  5
5D
102
{ACAD_REACTORS
330
47
102
}
330
47
100
AcDbScale
 70
     0
300
3/32" = 1'-0"
140
0.09375
141
12.0
290
     0
  0
SCALE
  5
5E
102
{ACAD_REACTORS
330
47
102
}
330
47
100
AcDbScale
 70
     0
300
1/8" = 1'-0"
140
0.125
141
12.0
290
     0
  0
SCALE
  5
5F
102
{ACAD_REACTORS
330
47
102
}
330
47
100
AcDbScale
 70
     0
300
3/16" = 1'-0"
140
0.1875
141
12.0
290
     0
  0
SCALE
  5
60
102
{ACAD_REACTORS
330
47
102
}
330
47
100
AcDbScale
 70
     0
300
1/4" = 1'-0"
140
0.25
141
12.0
290
     0
  0
SCALE
  5
61
102
{ACAD_REACTORS
330
47
102
}
330
47
100
AcDbScale
 70
     0
300
3/8" = 1'-0"
140
0.375
141
12.0
290
     0
  0
SCALE
  5
62
102
{ACAD_REACTORS
330
47
102
}
330
47
100
AcDbScale
 70
     0
300
1/2" = 1'-0"
140
0.5
141
12.0
290
     0
  0
SCALE
  5
63
102
{ACAD_REACTORS
330
47
102
}
330
47
100
AcDbScale
 70
     0
300
3/4" = 1'-0"
140
0.75
141
12.0
290
     0
  0
SCALE
  5
64
102
{ACAD_REACTORS
330
47
102
}
330
47
100
AcDbScale
 70
     0
300
1" = 1'-0"
140
1.0
141
12.0
290
     0
  0
SCALE
  5
65
102
{ACAD_REACTORS
330
47
102
}
330
47
100
AcDbScale
 70
     0
300
1-1/2" = 1'-0"
140
1.5
141
12.0
290
     0
  0
SCALE
  5
66
102
{ACAD_REACTORS
330
47
102
}
330
47
100
AcDbScale
 70
     0
300
3" = 1'-0"
140
3.0
141
12.0
290
     0
  0
SCALE
  5
67
102
{ACAD_REACTORS
330
47
102
}
330
47
100
AcDbScale
 70
     0
300
6" = 1'-0"
140
6.0
141
12.0
290
     0
  0
SCALE
  5
68
102
{ACAD_REACTORS
330
47
102
}
330
47
100
AcDbScale
 70
     0
300
1'-0" = 1'-0"
140
12.0
141
12.0
290
     0
  0
TABLESTYLE
  5
6A
102
{ACAD_REACTORS
330
69
102
}
102
{ACAD_XDICTIONARY
360
19B
102
}
330
69
100
AcDbTableStyle
  3
Standard
 70
     0
 71
     0
 40
0.06
 41
0.06
280
     0
281
     0
  7
Standard
140
4.5
170
     2
 62
     0
 63
   257
283
     0
 90
        4
 91
        0
  1

274
    -2
284
     1
 64
     0
275
    -2
285
     1
 65
     0
276
    -2
286
     1
 66
     0
277
    -2
287
     1
 67
     0
278
    -2
288
     1
 68
     0
279
    -2
289
     1
 69
     0
  7
Standard
140
6.0
170
     5
 62
     0
 63
   257
283
     0
 90
        4
 91
        0
  1

274
    -2
284
     1
 64
     0
275
    -2
285
     1
 65
     0
276
    -2
286
     1
 66
     0
277
    -2
287
     1
 67
     0
278
    -2
288
     1
 68
     0
279
    -2
289
     1
 69
     0
  7
Standard
140
4.5
170
     5
 62
     0
 63
   257
283
     0
 90
        4
 91
        0
  1

274
    -2
284
     1
 64
     0
275
    -2
285
     1
 65
     0
276
    -2
286
     1
 66
     0
277
    -2
287
     1
 67
     0
278
    -2
288
     1
 68
     0
279
    -2
289
     1
 69
     0
  0
VISUALSTYLE
  5
2F
102
{ACAD_REACTORS
330
2A
102
}
330
2A
100
AcDbVisualStyle
  2
2dWireframe
 70
     4
177
     3
291
     0
 70
    58
 90
        0
176
     1
 90
        2
176
     1
 90
        0
176
     1
 90
        0
176
     1
 40
0.6
176
     1
 40
30.0
176
     1
 62
     7
420
 16777215
176
     1
 90
        1
176
     1
 90
        4
176
     1
 62
     7
176
     1
 62
   257
176
     1
 90
        1
176
     1
 90
        1
176
     1
 40
1.0
176
     1
 90
        0
176
     1
 62
   257
176
     1
 40
1.0
176
     1
 90
        1
176
     1
 90
        6
176
     1
 90
        2
176
     1
 62
     7
176
     1
 90
        5
176
     1
 90
        0
176
     1
 90
        0
176
     1
290
     0
176
     1
 90
        1
176
     1
 40
0.0
176
     1
 90
        0
176
     1
290
     1
176
     1
290
     1
176
     1
290
     0
176
     1
290
     0
176
     1
290
     0
176
     1
290
     0
176
     1
290
     0
176
     1
290
     0
176
     1
290
     0
176
     1
 90
       50
176
     1
 40
0.0
176
     1
 40
1.0
176
     1
 90
        0
176
     1
 62
    18
420
        0
176
     1
 90
       50
176
     1
 90
        3
176
     1
 62
     5
420
      255
176
     1
290
     0
176
     1
 90
       50
176
     1
 90
       50
176
     1
 90
       50
176
     1
290
     0
176
     1
 90
       50
176
     1
 62
   256
176
     0
 40
1.0
176
     0
 90
        2
176
     1
  1
strokes_ogs.tif
176
     1
290
     0
176
     1
 40
1.0
176
     1
 40
1.0
176
     1
  0
VISUALSTYLE
  5
32
102
{ACAD_REACTORS
330
2A
102
}
330
2A
100
AcDbVisualStyle
  2
Basic
 70
     7
177
     3
291
     1
 70
    58
 90
        1
176
     1
 90
        0
176
     1
 90
        1
176
     1
 90
        0
176
     1
 40
0.6
176
     1
 40
30.0
176
     1
 62
     7
420
 16777215
176
     1
 90
        0
176
     1
 90
        4
176
     1
 62
     7
176
     1
 62
   257
176
     1
 90
        1
176
     1
 90
        1
176
     1
 40
1.0
176
     1
 90
        8
176
     1
 62
     7
176
     1
 40
1.0
176
     1
 90
        1
176
     1
 90
        6
176
     1
 90
        2
176
     1
 62
     7
176
     1
 90
        5
176
     1
 90
        0
176
     1
 90
        0
176
     1
290
     0
176
     1
 90
        1
176
     1
 40
0.0
176
     1
 90
        0
176
     1
290
     0
176
     1
290
     1
176
     1
290
     1
176
     1
290
     0
176
     1
290
     0
176
     1
290
     0
176
     1
290
     0
176
     1
290
     0
176
     1
290
     0
176
     1
 90
       50
176
     1
 40
0.0
176
     1
 40
1.0
176
     1
 90
        0
176
     1
 62
    18
420
        0
176
     1
 90
       50
176
     1
 90
        3
176
     1
 62
     5
420
      255
176
     1
290
     0
176
     1
 90
       50
176
     1
 90
       50
176
     1
 90
       50
176
     1
290
     0
176
     1
 90
       50
176
     1
 62
   256
176
     0
 40
1.0
176
     0
 90
        2
176
     1
  1
strokes_ogs.tif
176
     1
290
     0
176
     1
 40
1.0
176
     1
 40
1.0
176
     1
  0
VISUALSTYLE
  5
36
102
{ACAD_REACTORS
330
2A
102
}
330
2A
100
AcDbVisualStyle
  2
Brighten
 70
    12
177
     3
291
     1
 70
    58
 90
        2
176
     1
 90
        2
176
     1
 90
        0
176
     1
 90
        0
176
     1
 40
0.6
176
     1
 40
30.0
176
     1
 62
     7
420
 16777215
176
     1
 90
        1
176
     1
 90
        4
176
     1
 62
     7
176
     1
 62
   257
176
     1
 90
        1
176
     1
 90
        1
176
     1
 40
1.0
176
     1
 90
        8
176
     1
 62
     7
176
     1
 40
1.0
176
     1
 90
        1
176
     1
 90
        6
176
     1
 90
        2
176
     1
 62
     7
176
     1
 90
        5
176
     1
 90
        0
176
     1
 90
        0
176
     1
290
     0
176
     1
 90
        1
176
     1
 40
50.0
176
     1
 90
        0
176
     1
290
     0
176
     1
290
     1
176
     1
290
     1
176
     1
290
     0
176
     1
290
     0
176
     1
290
     0
176
     1
290
     0
176
     1
290
     0
176
     1
290
     0
176
     1
 90
       50
176
     1
 40
0.0
176
     1
 40
1.0
176
     1
 90
        0
176
     1
 62
    18
420
        0
176
     1
 90
       50
176
     1
 90
        3
176
     1
 62
     5
420
      255
176
     1
290
     0
176
     1
 90
       50
176
     1
 90
       50
176
     1
 90
       50
176
     1
290
     0
176
     1
 90
       50
176
     1
 62
   256
176
     0
 40
1.0
176
     0
 90
        2
176
     1
  1
strokes_ogs.tif
176
     1
290
     0
176
     1
 40
1.0
176
     1
 40
1.0
176
     1
  0
VISUALSTYLE
  5
3A
102
{ACAD_REACTORS
330
2A
102
}
330
2A
100
AcDbVisualStyle
  2
ColorChange
 70
    16
177
     3
291
     1
 70
    58
 90
        2
176
     1
 90
        2
176
     1
 90
        3
176
     1
 90
        0
176
     1
 40
0.6
176
     1
 40
30.0
176
     1
 62
     8
420
  8421504
176
     1
 90
        1
176
     1
 90
        4
176
     1
 62
     7
176
     1
 62
   257
176
     1
 90
        1
176
     1
 90
        1
176
     1
 40
1.0
176
     1
 90
        8
176
     1
 62
     8
420
  8421504
176
     1
 40
1.0
176
     1
 90
        1
176
     1
 90
        6
176
     1
 90
        2
176
     1
 62
     7
176
     1
 90
        5
176
     1
 90
        0
176
     1
 90
        0
176
     1
290
     0
176
     1
 90
        1
176
     1
 40
0.0
176
     1
 90
        0
176
     1
290
     0
176
     1
290
     1
176
     1
290
     1
176
     1
290
     0
176
     1
290
     0
176
     1
290
     0
176
     1
290
     0
176
     1
290
     0
176
     1
290
     0
176
     1
 90
       50
176
     1
 40
0.0
176
     1
 40
1.0
176
     1
 90
        0
176
     1
 62
    18
420
        0
176
     1
 90
       50
176
     1
 90
        3
176
     1
 62
     5
420
      255
176
     1
290
     0
176
     1
 90
       50
176
     1
 90
       50
176
     1
 90
       50
176
     1
290
     0
176
     1
 90
       50
176
     1
 62
   256
176
     0
 40
1.0
176
     0
 90
        2
176
     1
  1
strokes_ogs.tif
176
     1
290
     0
176
     1
 40
1.0
176
     1
 40
1.0
176
     1
  0
VISUALSTYLE
  5
34
102
{ACAD_REACTORS
330
2A
102
}
330
2A
100
AcDbVisualStyle
  2
Conceptual
 70
     9
177
     3
291
     0
 70
    58
 90
        3
176
     1
 90
        2
176
     1
 90
        0
176
     1
 90
        0
176
     1
 40
0.6
176
     1
 40
30.0
176
     1
 62
     7
420
 16777215
176
     1
 90
        2
176
     1
 90
        2
176
     1
 62
     7
176
     1
 62
   257
176
     1
 90
        1
176
     1
 90
        1
176
     1
 40
179.0
176
     1
 90
        8
176
     1
 62
     7
176
     1
 40
1.0
176
     1
 90
        1
176
     1
 90
        6
176
     1
 90
        2
176
     1
 62
     7
176
     1
 90
        3
176
     1
 90
        0
176
     1
 90
        0
176
     1
290
     0
176
     1
 90
        1
176
     1
 40
0.0
176
     1
 90
        0
176
     1
290
     0
176
     1
290
     1
176
     1
290
     1
176
     1
290
     0
176
     1
290
     0
176
     1
290
     0
176
     1
290
     0
176
     1
290
     0
176
     1
290
     0
176
     1
 90
       50
176
     1
 40
0.0
176
     1
 40
1.0
176
     1
 90
        0
176
     1
 62
    18
420
        0
176
     1
 90
       50
176
     1
 90
        3
176
     1
 62
     5
420
      255
176
     1
290
     0
176
     1
 90
       50
176
     1
 90
       50
176
     1
 90
       50
176
     1
290
     0
176
     1
 90
       50
176
     1
 62
   256
176
     0
 40
1.0
176
     0
 90
        2
176
     1
  1
strokes_ogs.tif
176
     1
290
     0
176
     1
 40
1.0
176
     1
 40
1.0
176
     1
  0
VISUALSTYLE
  5
35
102
{ACAD_REACTORS
330
2A
102
}
330
2A
100
AcDbVisualStyle
  2
Dim
 70
    11
177
     3
291
     1
 70
    58
 90
        2
176
     1
 90
        2
176
     1
 90
        0
176
     1
 90
        0
176
     1
 40
0.6
176
     1
 40
30.0
176
     1
 62
     7
420
 16777215
176
     1
 90
        1
176
     1
 90
        4
176
     1
 62
     7
176
     1
 62
   257
176
     1
 90
        1
176
     1
 90
        1
176
     1
 40
1.0
176
     1
 90
        8
176
     1
 62
     7
176
     1
 40
1.0
176
     1
 90
        1
176
     1
 90
        6
176
     1
 90
        2
176
     1
 62
     7
176
     1
 90
        5
176
     1
 90
        0
176
     1
 90
        0
176
     1
290
     0
176
     1
 90
        1
176
     1
 40
-50.0
176
     1
 90
        0
176
     1
290
     0
176
     1
290
     1
176
     1
290
     1
176
     1
290
     0
176
     1
290
     0
176
     1
290
     0
176
     1
290
     0
176
     1
290
     0
176
     1
290
     0
176
     1
 90
       50
176
     1
 40
0.0
176
     1
 40
1.0
176
     1
 90
        0
176
     1
 62
    18
420
        0
176
     1
 90
       50
176
     1
 90
        3
176
     1
 62
     5
420
      255
176
     1
290
     0
176
     1
 90
       50
176
     1
 90
       50
176
     1
 90
       50
176
     1
290
     0
176
     1
 90
       50
176
     1
 62
   256
176
     0
 40
1.0
176
     0
 90
        2
176
     1
  1
strokes_ogs.tif
176
     1
290
     0
176
     1
 40
1.0
176
     1
 40
1.0
176
     1
  0
VISUALSTYLE
  5
3D
102
{ACAD_REACTORS
330
2A
102
}
330
2A
100
AcDbVisualStyle
  2
EdgeColorOff
 70
    22
177
     3
291
     1
 70
    58
 90
        2
176
     0
 90
        2
176
     0
 90
        0
176
     0
 90
        0
176
     0
 40
0.6
176
     0
 40
30.0
176
     0
 62
     7
420
 16777215
176
     0
 90
        1
176
     0
 90
        4
176
     0
 62
     7
176
     0
 62
   257
176
     0
 90
        1
176
     0
 90
        1
176
     0
 40
1.0
176
     0
 90
        8
176
     2
 62
     7
176
     0
 40
1.0
176
     0
 90
        1
176
     0
 90
        6
176
     0
 90
        2
176
     0
 62
     7
176
     0
 90
        5
176
     0
 90
        0
176
     0
 90
        0
176
     0
290
     0
176
     0
 90
        1
176
     0
 40
0.0
176
     0
 90
        0
176
     0
290
     0
176
     0
290
     1
176
     0
290
     1
176
     0
290
     0
176
     0
290
     0
176
     0
290
     0
176
     0
290
     0
176
     0
290
     0
176
     0
290
     0
176
     0
 90
       50
176
     0
 40
0.0
176
     0
 40
1.0
176
     0
 90
        0
176
     0
 62
    18
420
        0
176
     0
 90
       50
176
     0
 90
        3
176
     0
 62
     5
420
      255
176
     0
290
     0
176
     0
 90
       50
176
     0
 90
       50
176
     0
 90
       50
176
     0
290
     0
176
     0
 90
       50
176
     0
 62
   256
176
     0
 40
1.0
176
     0
 90
        2
176
     0
  1
strokes_ogs.tif
176
     0
290
     0
176
     0
 40
1.0
176
     0
 40
1.0
176
     0
  0
VISUALSTYLE
  5
39
102
{ACAD_REACTORS
330
2A
102
}
330
2A
100
AcDbVisualStyle
  2
Facepattern
 70
    15
177
     3
291
     1
 70
    58
 90
        2
176
     1
 90
        2
176
     1
 90
        0
176
     1
 90
        0
176
     1
 40
0.6
176
     1
 40
30.0
176
     1
 62
     7
420
 16777215
176
     1
 90
        1
176
     1
 90
        4
176
     1
 62
     7
176
     1
 62
   257
176
     1
 90
        1
176
     1
 90
        1
176
     1
 40
1.0
176
     1
 90
        8
176
     1
 62
     7
176
     1
 40
1.0
176
     1
 90
        1
176
     1
 90
        6
176
     1
 90
        2
176
     1
 62
     7
176
     1
 90
        5
176
     1
 90
        0
176
     1
 90
        0
176
     1
290
     0
176
     1
 90
        1
176
     1
 40
0.0
176
     1
 90
        0
176
     1
290
     0
176
     1
290
     1
176
     1
290
     1
176
     1
290
     0
176
     1
290
     0
176
     1
290
     0
176
     1
290
     0
176
     1
290
     0
176
     1
290
     0
176
     1
 90
       50
176
     1
 40
0.0
176
     1
 40
1.0
176
     1
 90
        0
176
     1
 62
    18
420
        0
176
     1
 90
       50
176
     1
 90
        3
176
     1
 62
     5
420
      255
176
     1
290
     0
176
     1
 90
       50
176
     1
 90
       50
176
     1
 90
       50
176
     1
290
     0
176
     1
 90
       50
176
     1
 62
   256
176
     0
 40
1.0
176
     0
 90
        2
176
     1
  1
strokes_ogs.tif
176
     1
290
     0
176
     1
 40
1.0
176
     1
 40
1.0
176
     1
  0
VISUALSTYLE
  5
2B
102
{ACAD_REACTORS
330
2A
102
}
330
2A
100
AcDbVisualStyle
  2
Flat
 70
     0
177
     3
291
     1
 70
    58
 90
        2
176
     1
 90
        1
176
     1
 90
        1
176
     1
 90
        2
176
     1
 40
0.6
176
     1
 40
30.0
176
     1
 62
     7
420
 16777215
176
     1
 90
        0
176
     1
 90
        0
176
     1
 62
     7
176
     1
 62
   257
176
     1
 90
        1
176
     1
 90
        1
176
     1
 40
1.0
176
     1
 90
        8
176
     1
 62
     7
176
     1
 40
1.0
176
     1
 90
        1
176
     1
 90
        6
176
     1
 90
        2
176
     1
 62
     7
176
     1
 90
        5
176
     1
 90
        0
176
     1
 90
        0
176
     1
290
     0
176
     1
 90
       13
176
     1
 40
0.0
176
     1
 90
        0
176
     1
290
     0
176
     1
290
     1
176
     1
290
     1
176
     1
290
     0
176
     1
290
     0
176
     1
290
     0
176
     1
290
     0
176
     1
290
     0
176
     1
290
     0
176
     1
 90
       50
176
     1
 40
0.0
176
     1
 40
1.0
176
     1
 90
        0
176
     1
 62
    18
420
        0
176
     1
 90
       50
176
     1
 90
        3
176
     1
 62
     5
420
      255
176
     1
290
     0
176
     1
 90
       50
176
     1
 90
       50
176
     1
 90
       50
176
     1
290
     0
176
     1
 90
       50
176
     1
 62
   256
176
     0
 40
1.0
176
     0
 90
        2
176
     1
  1
strokes_ogs.tif
176
     1
290
     0
176
     1
 40
1.0
176
     1
 40
1.0
176
     1
  0
VISUALSTYLE
  5
2C
102
{ACAD_REACTORS
330
2A
102
}
330
2A
100
AcDbVisualStyle
  2
FlatWithEdges
 70
     1
177
     3
291
     1
 70
    58
 90
        2
176
     1
 90
        1
176
     1
 90
        1
176
     1
 90
        2
176
     1
 40
0.6
176
     1
 40
30.0
176
     1
 62
     7
420
 16777215
176
     1
 90
        1
176
     1
 90
        0
176
     1
 62
     7
176
     1
 62
   257
176
     1
 90
        1
176
     1
 90
        1
176
     1
 40
1.0
176
     1
 90
        0
176
     1
 62
   257
176
     1
 40
1.0
176
     1
 90
        1
176
     1
 90
        6
176
     1
 90
        2
176
     1
 62
     7
176
     1
 90
        5
176
     1
 90
        0
176
     1
 90
        0
176
     1
290
     0
176
     1
 90
       13
176
     1
 40
0.0
176
     1
 90
        0
176
     1
290
     0
176
     1
290
     1
176
     1
290
     1
176
     1
290
     0
176
     1
290
     0
176
     1
290
     0
176
     1
290
     0
176
     1
290
     0
176
     1
290
     0
176
     1
 90
       50
176
     1
 40
0.0
176
     1
 40
1.0
176
     1
 90
        0
176
     1
 62
    18
420
        0
176
     1
 90
       50
176
     1
 90
        3
176
     1
 62
     5
420
      255
176
     1
290
     0
176
     1
 90
       50
176
     1
 90
       50
176
     1
 90
       50
176
     1
290
     0
176
     1
 90
       50
176
     1
 62
   256
176
     0
 40
1.0
176
     0
 90
        2
176
     1
  1
strokes_ogs.tif
176
     1
290
     0
176
     1
 40
1.0
176
     1
 40
1.0
176
     1
  0
VISUALSTYLE
  5
2D
102
{ACAD_REACTORS
330
2A
102
}
330
2A
100
AcDbVisualStyle
  2
Gouraud
 70
     2
177
     3
291
     1
 70
    58
 90
        2
176
     1
 90
        2
176
     1
 90
        1
176
     1
 90
        2
176
     1
 40
0.6
176
     1
 40
30.0
176
     1
 62
     7
420
 16777215
176
     1
 90
        0
176
     1
 90
        0
176
     1
 62
     7
176
     1
 62
   257
176
     1
 90
        1
176
     1
 90
        1
176
     1
 40
1.0
176
     1
 90
        0
176
     1
 62
     7
176
     1
 40
1.0
176
     1
 90
        1
176
     1
 90
        6
176
     1
 90
        2
176
     1
 62
     7
176
     1
 90
        5
176
     1
 90
        0
176
     1
 90
        0
176
     1
290
     0
176
     1
 90
       13
176
     1
 40
0.0
176
     1
 90
        0
176
     1
290
     0
176
     1
290
     1
176
     1
290
     1
176
     1
290
     0
176
     1
290
     0
176
     1
290
     0
176
     1
290
     0
176
     1
290
     0
176
     1
290
     0
176
     1
 90
       50
176
     1
 40
0.0
176
     1
 40
1.0
176
     1
 90
        0
176
     1
 62
    18
420
        0
176
     1
 90
       50
176
     1
 90
        3
176
     1
 62
     5
420
      255
176
     1
290
     0
176
     1
 90
       50
176
     1
 90
       50
176
     1
 90
       50
176
     1
290
     0
176
     1
 90
       50
176
     1
 62
   256
176
     0
 40
1.0
176
     0
 90
        2
176
     1
  1
strokes_ogs.tif
176
     1
290
     0
176
     1
 40
1.0
176
     1
 40
1.0
176
     1
  0
VISUALSTYLE
  5
2E
102
{ACAD_REACTORS
330
2A
102
}
330
2A
100
AcDbVisualStyle
  2
GouraudWithEdges
 70
     3
177
     3
291
     1
 70
    58
 90
        2
176
     1
 90
        2
176
     1
 90
        1
176
     1
 90
        2
176
     1
 40
0.6
176
     1
 40
30.0
176
     1
 62
     7
420
 16777215
176
     1
 90
        1
176
     1
 90
        0
176
     1
 62
     7
176
     1
 62
   257
176
     1
 90
        1
176
     1
 90
        1
176
     1
 40
1.0
176
     1
 90
        0
176
     1
 62
   257
176
     1
 40
1.0
176
     1
 90
        1
176
     1
 90
        6
176
     1
 90
        2
176
     1
 62
     7
176
     1
 90
        5
176
     1
 90
        0
176
     1
 90
        0
176
     1
290
     0
176
     1
 90
       13
176
     1
 40
0.0
176
     1
 90
        0
176
     1
290
     0
176
     1
290
     1
176
     1
290
     1
176
     1
290
     0
176
     1
290
     0
176
     1
290
     0
176
     1
290
     0
176
     1
290
     0
176
     1
290
     0
176
     1
 90
       50
176
     1
 40
0.0
176
     1
 40
1.0
176
     1
 90
        0
176
     1
 62
    18
420
        0
176
     1
 90
       50
176
     1
 90
        3
176
     1
 62
     5
420
      255
176
     1
290
     0
176
     1
 90
       50
176
     1
 90
       50
176
     1
 90
       50
176
     1
290
     0
176
     1
 90
       50
176
     1
 62
   256
176
     0
 40
1.0
176
     0
 90
        2
176
     1
  1
strokes_ogs.tif
176
     1
290
     0
176
     1
 40
1.0
176
     1
 40
1.0
176
     1
  0
VISUALSTYLE
  5
31
102
{ACAD_REACTORS
330
2A
102
}
330
2A
100
AcDbVisualStyle
  2
Hidden
 70
     6
177
     3
291
     0
 70
    58
 90
        1
176
     1
 90
        2
176
     1
 90
        2
176
     1
 90
        0
176
     1
 40
0.6
176
     1
 40
30.0
176
     1
 62
     7
420
 16777215
176
     1
 90
        2
176
     1
 90
        2
176
     1
 62
     7
176
     1
 62
   257
176
     1
 90
        2
176
     1
 90
        1
176
     1
 40
40.0
176
     1
 90
        0
176
     1
 62
   257
176
     1
 40
1.0
176
     1
 90
        1
176
     1
 90
        6
176
     1
 90
        2
176
     1
 62
     7
176
     1
 90
        3
176
     1
 90
        0
176
     1
 90
        0
176
     1
290
     0
176
     1
 90
        1
176
     1
 40
0.0
176
     1
 90
        0
176
     1
290
     0
176
     1
290
     1
176
     1
290
     1
176
     1
290
     0
176
     1
290
     0
176
     1
290
     0
176
     1
290
     0
176
     1
290
     0
176
     1
290
     0
176
     1
 90
       50
176
     1
 40
0.0
176
     1
 40
1.0
176
     1
 90
        0
176
     1
 62
    18
420
        0
176
     1
 90
       50
176
     1
 90
        3
176
     1
 62
     5
420
      255
176
     1
290
     0
176
     1
 90
       50
176
     1
 90
       50
176
     1
 90
       50
176
     1
290
     0
176
     1
 90
       50
176
     1
 62
   256
176
     0
 40
1.0
176
     0
 90
        2
176
     1
  1
strokes_ogs.tif
176
     1
290
     0
176
     1
 40
1.0
176
     1
 40
1.0
176
     1
  0
VISUALSTYLE
  5
3B
102
{ACAD_REACTORS
330
2A
102
}
330
2A
100
AcDbVisualStyle
  2
JitterOff
 70
    20
177
     3
291
     1
 70
    58
 90
        2
176
     0
 90
        2
176
     0
 90
        0
176
     0
 90
        0
176
     0
 40
0.6
176
     0
 40
30.0
176
     0
 62
     7
420
 16777215
176
     0
 90
        1
176
     0
 90
        4
176
     0
 62
     7
176
     0
 62
   257
176
     0
 90
        1
176
     0
 90
        1
176
     0
 40
1.0
176
     0
 90
       10
176
     2
 62
     7
176
     0
 40
1.0
176
     0
 90
        1
176
     0
 90
        6
176
     0
 90
        2
176
     0
 62
     7
176
     0
 90
        5
176
     0
 90
        0
176
     0
 90
        0
176
     0
290
     0
176
     0
 90
        1
176
     0
 40
0.0
176
     0
 90
        0
176
     0
290
     0
176
     0
290
     1
176
     0
290
     1
176
     0
290
     0
176
     0
290
     0
176
     0
290
     0
176
     0
290
     0
176
     0
290
     0
176
     0
290
     0
176
     0
 90
       50
176
     0
 40
0.0
176
     0
 40
1.0
176
     0
 90
        0
176
     0
 62
    18
420
        0
176
     0
 90
       50
176
     0
 90
        3
176
     0
 62
     5
420
      255
176
     0
290
     0
176
     0
 90
       50
176
     0
 90
       50
176
     0
 90
       50
176
     0
290
     0
176
     0
 90
       50
176
     0
 62
   256
176
     0
 40
1.0
176
     0
 90
        2
176
     0
  1
strokes_ogs.tif
176
     0
290
     0
176
     0
 40
1.0
176
     0
 40
1.0
176
     0
  0
VISUALSTYLE
  5
38
102
{ACAD_REACTORS
330
2A
102
}
330
2A
100
AcDbVisualStyle
  2
Linepattern
 70
    14
177
     3
291
     1
 70
    58
 90
        2
176
     1
 90
        2
176
     1
 90
        0
176
     1
 90
        0
176
     1
 40
0.6
176
     1
 40
30.0
176
     1
 62
     7
420
 16777215
176
     1
 90
        1
176
     1
 90
        4
176
     1
 62
     7
176
     1
 62
   257
176
     1
 90
        7
176
     1
 90
        7
176
     1
 40
1.0
176
     1
 90
        8
176
     1
 62
     7
176
     1
 40
1.0
176
     1
 90
        1
176
     1
 90
        6
176
     1
 90
        2
176
     1
 62
     7
176
     1
 90
        5
176
     1
 90
        0
176
     1
 90
        0
176
     1
290
     0
176
     1
 90
        1
176
     1
 40
0.0
176
     1
 90
        0
176
     1
290
     0
176
     1
290
     1
176
     1
290
     1
176
     1
290
     0
176
     1
290
     0
176
     1
290
     0
176
     1
290
     0
176
     1
290
     0
176
     1
290
     0
176
     1
 90
       50
176
     1
 40
0.0
176
     1
 40
1.0
176
     1
 90
        0
176
     1
 62
    18
420
        0
176
     1
 90
       50
176
     1
 90
        3
176
     1
 62
     5
420
      255
176
     1
290
     0
176
     1
 90
       50
176
     1
 90
       50
176
     1
 90
       50
176
     1
290
     0
176
     1
 90
       50
176
     1
 62
   256
176
     0
 40
1.0
176
     0
 90
        2
176
     1
  1
strokes_ogs.tif
176
     1
290
     0
176
     1
 40
1.0
176
     1
 40
1.0
176
     1
  0
VISUALSTYLE
  5
3C
102
{ACAD_REACTORS
330
2A
102
}
330
2A
100
AcDbVisualStyle
  2
OverhangOff
 70
    21
177
     3
291
     1
 70
    58
 90
        2
176
     0
 90
        2
176
     0
 90
        0
176
     0
 90
        0
176
     0
 40
0.6
176
     0
 40
30.0
176
     0
 62
     7
420
 16777215
176
     0
 90
        1
176
     0
 90
        4
176
     0
 62
     7
176
     0
 62
   257
176
     0
 90
        1
176
     0
 90
        1
176
     0
 40
1.0
176
     0
 90
        9
176
     2
 62
     7
176
     0
 40
1.0
176
     0
 90
        1
176
     0
 90
        6
176
     0
 90
        2
176
     0
 62
     7
176
     0
 90
        5
176
     0
 90
        0
176
     0
 90
        0
176
     0
290
     0
176
     0
 90
        1
176
     0
 40
0.0
176
     0
 90
        0
176
     0
290
     0
176
     0
290
     1
176
     0
290
     1
176
     0
290
     0
176
     0
290
     0
176
     0
290
     0
176
     0
290
     0
176
     0
290
     0
176
     0
290
     0
176
     0
 90
       50
176
     0
 40
0.0
176
     0
 40
1.0
176
     0
 90
        0
176
     0
 62
    18
420
        0
176
     0
 90
       50
176
     0
 90
        3
176
     0
 62
     5
420
      255
176
     0
290
     0
176
     0
 90
       50
176
     0
 90
       50
176
     0
 90
       50
176
     0
290
     0
176
     0
 90
       50
176
     0
 62
   256
176
     0
 40
1.0
176
     0
 90
        2
176
     0
  1
strokes_ogs.tif
176
     0
290
     0
176
     0
 40
1.0
176
     0
 40
1.0
176
     0
  0
VISUALSTYLE
  5
33
102
{ACAD_REACTORS
330
2A
102
}
330
2A
100
AcDbVisualStyle
  2
Realistic
 70
     8
177
     3
291
     0
 70
    58
 90
        2
176
     1
 90
        3
176
     1
 90
        0
176
     1
 90
        2
176
     1
 40
0.6
176
     1
 40
30.0
176
     1
 62
     7
420
 16777215
176
     1
 90
        0
176
     1
 90
        0
176
     1
 62
     7
176
     1
 62
   257
176
     1
 90
        1
176
     1
 90
        1
176
     1
 40
1.0
176
     1
 90
        8
176
     1
 62
   257
176
     1
 40
1.0
176
     1
 90
        1
176
     1
 90
        6
176
     1
 90
        2
176
     1
 62
     7
176
     1
 90
        3
176
     1
 90
        0
176
     1
 90
        0
176
     1
290
     0
176
     1
 90
       13
176
     1
 40
0.0
176
     1
 90
        0
176
     1
290
     0
176
     1
290
     1
176
     1
290
     1
176
     1
290
     0
176
     1
290
     0
176
     1
290
     0
176
     1
290
     0
176
     1
290
     0
176
     1
290
     0
176
     1
 90
       50
176
     1
 40
0.0
176
     1
 40
1.0
176
     1
 90
        0
176
     1
 62
    18
420
        0
176
     1
 90
       50
176
     1
 90
        3
176
     1
 62
     5
420
      255
176
     1
290
     0
176
     1
 90
       50
176
     1
 90
       50
176
     1
 90
       50
176
     1
290
     0
176
     1
 90
       50
176
     1
 62
   256
176
     0
 40
1.0
176
     0
 90
        2
176
     1
  1
strokes_ogs.tif
176
     1
290
     0
176
     1
 40
1.0
176
     1
 40
1.0
176
     1
  0
VISUALSTYLE
  5
42
102
{ACAD_REACTORS
330
2A
102
}
330
2A
100
AcDbVisualStyle
  2
Shaded
 70
    27
177
     3
291
     0
 70
    58
 90
        2
176
     1
 90
        2
176
     1
 90
        1
176
     1
 90
        2
176
     1
 40
0.6
176
     1
 40
30.0
176
     1
 62
     7
420
 16777215
176
     1
 90
        0
176
     1
 90
        4
176
     1
 62
     7
176
     1
 62
   257
176
     1
 90
        1
176
     1
 90
        1
176
     1
 40
1.0
176
     1
 90
        8
176
     1
 62
   257
176
     1
 40
1.0
176
     1
 90
        1
176
     1
 90
        6
176
     1
 90
        2
176
     1
 62
     8
420
  7895160
176
     1
 90
        3
176
     1
 90
        0
176
     1
 90
        0
176
     1
290
     0
176
     1
 90
        5
176
     1
 40
0.0
176
     1
 90
        0
176
     1
290
     0
176
     1
290
     1
176
     1
290
     1
176
     1
290
     0
176
     1
290
     0
176
     1
290
     0
176
     1
290
     0
176
     1
290
     0
176
     1
290
     0
176
     1
 90
       50
176
     1
 40
0.0
176
     1
 40
1.0
176
     1
 90
        0
176
     1
 62
    18
420
        0
176
     1
 90
       50
176
     1
 90
        3
176
     1
 62
     5
420
      255
176
     1
290
     0
176
     1
 90
       50
176
     1
 90
       50
176
     1
 90
       50
176
     1
290
     0
176
     1
 90
       50
176
     1
 62
   256
176
     0
 40
1.0
176
     0
 90
        2
176
     1
  1
strokes_ogs.tif
176
     1
290
     0
176
     1
 40
1.0
176
     1
 40
1.0
176
     1
  0
VISUALSTYLE
  5
41
102
{ACAD_REACTORS
330
2A
102
}
330
2A
100
AcDbVisualStyle
  2
Shaded with edges
 70
    26
177
     3
291
     0
 70
    58
 90
        2
176
     1
 90
        2
176
     1
 90
        1
176
     1
 90
        2
176
     1
 40
0.6
176
     1
 40
30.0
176
     1
 62
     7
420
 16777215
176
     1
 90
        1
176
     1
 90
       10
176
     1
 62
     7
176
     1
 62
   257
176
     1
 90
        2
176
     1
 90
        1
176
     1
 40
1.0
176
     1
 90
        8
176
     1
 62
   257
176
     1
 40
1.0
176
     1
 90
        1
176
     1
 90
        6
176
     1
 90
        2
176
     1
 62
     7
176
     1
 90
        3
176
     1
 90
        0
176
     1
 90
        0
176
     1
290
     0
176
     1
 90
        5
176
     1
 40
0.0
176
     1
 90
        0
176
     1
290
     0
176
     1
290
     1
176
     1
290
     1
176
     1
290
     0
176
     1
290
     0
176
     1
290
     0
176
     1
290
     0
176
     1
290
     0
176
     1
290
     0
176
     1
 90
       50
176
     1
 40
0.0
176
     1
 40
1.0
176
     1
 90
        0
176
     1
 62
    18
420
        0
176
     1
 90
       50
176
     1
 90
        3
176
     1
 62
     5
420
      255
176
     1
290
     0
176
     1
 90
       50
176
     1
 90
       50
176
     1
 90
       50
176
     1
290
     0
176
     1
 90
       50
176
     1
 62
   256
176
     0
 40
1.0
176
     0
 90
        2
176
     1
  1
strokes_ogs.tif
176
     1
290
     0
176
     1
 40
1.0
176
     1
 40
1.0
176
     1
  0
VISUALSTYLE
  5
3E
102
{ACAD_REACTORS
330
2A
102
}
330
2A
100
AcDbVisualStyle
  2
Shades of Gray
 70
    23
177
     3
291
     0
 70
    58
 90
        2
176
     1
 90
        2
176
     1
 90
        3
176
     1
 90
        0
176
     1
 40
0.6
176
     1
 40
30.0
176
     1
 62
     7
420
 16777215
176
     1
 90
        2
176
     1
 90
        2
176
     1
 62
     7
176
     1
 62
     7
176
     1
 90
        1
176
     1
 90
        1
176
     1
 40
40.0
176
     1
 90
        8
176
     1
 62
     7
176
     1
 40
1.0
176
     1
 90
        1
176
     1
 90
        6
176
     1
 90
        2
176
     1
 62
     7
176
     1
 90
        3
176
     1
 90
        0
176
     1
 90
        0
176
     1
290
     0
176
     1
 90
        1
176
     1
 40
0.0
176
     1
 90
        0
176
     1
290
     0
176
     1
290
     1
176
     1
290
     1
176
     1
290
     0
176
     1
290
     0
176
     1
290
     0
176
     1
290
     0
176
     1
290
     0
176
     1
290
     0
176
     1
 90
       50
176
     1
 40
0.0
176
     1
 40
1.0
176
     1
 90
        0
176
     1
 62
    18
420
        0
176
     1
 90
       50
176
     1
 90
        3
176
     1
 62
     5
420
      255
176
     1
290
     0
176
     1
 90
       50
176
     1
 90
       50
176
     1
 90
       50
176
     1
290
     0
176
     1
 90
       50
176
     1
 62
   256
176
     0
 40
1.0
176
     0
 90
        2
176
     1
  1
strokes_ogs.tif
176
     1
290
     0
176
     1
 40
1.0
176
     1
 40
1.0
176
     1
  0
VISUALSTYLE
  5
3F
102
{ACAD_REACTORS
330
2A
102
}
330
2A
100
AcDbVisualStyle
  2
Sketchy
 70
    24
177
     3
291
     0
 70
    58
 90
        1
176
     1
 90
        2
176
     1
 90
        2
176
     1
 90
        0
176
     1
 40
0.6
176
     1
 40
30.0
176
     1
 62
     7
420
 16777215
176
     1
 90
        2
176
     1
 90
        2
176
     1
 62
     7
176
     1
 62
     7
176
     1
 90
        1
176
     1
 90
        1
176
     1
 40
40.0
176
     1
 90
       11
176
     1
 62
     7
176
     1
 40
1.0
176
     1
 90
        1
176
     1
 90
        6
176
     1
 90
        2
176
     1
 62
     7
176
     1
 90
        6
176
     1
 90
        0
176
     1
 90
        0
176
     1
290
     0
176
     1
 90
        1
176
     1
 40
0.0
176
     1
 90
        0
176
     1
290
     0
176
     1
290
     1
176
     1
290
     1
176
     1
290
     0
176
     1
290
     0
176
     1
290
     0
176
     1
290
     0
176
     1
290
     0
176
     1
290
     0
176
     1
 90
       50
176
     1
 40
0.0
176
     1
 40
1.0
176
     1
 90
        0
176
     1
 62
    18
420
        0
176
     1
 90
       50
176
     1
 90
        3
176
     1
 62
     5
420
      255
176
     1
290
     0
176
     1
 90
       50
176
     1
 90
       50
176
     1
 90
       50
176
     1
290
     0
176
     1
 90
       50
176
     1
 62
   256
176
     0
 40
1.0
176
     0
 90
        2
176
     1
  1
strokes_ogs.tif
176
     1
290
     0
176
     1
 40
1.0
176
     1
 40
1.0
176
     1
  0
VISUALSTYLE
  5
37
102
{ACAD_REACTORS
330
2A
102
}
330
2A
100
AcDbVisualStyle
  2
Thicken
 70
    13
177
     3
291
     1
 70
    58
 90
        2
176
     1
 90
        2
176
     1
 90
        0
176
     1
 90
        0
176
     1
 40
0.6
176
     1
 40
30.0
176
     1
 62
     7
420
 16777215
176
     1
 90
        1
176
     1
 90
        4
176
     1
 62
     7
176
     1
 62
   257
176
     1
 90
        1
176
     1
 90
        1
176
     1
 40
1.0
176
     1
 90
       12
176
     1
 62
     7
176
     1
 40
1.0
176
     1
 90
        1
176
     1
 90
        6
176
     1
 90
        2
176
     1
 62
     7
176
     1
 90
        5
176
     1
 90
        0
176
     1
 90
        0
176
     1
290
     0
176
     1
 90
        1
176
     1
 40
0.0
176
     1
 90
        0
176
     1
290
     0
176
     1
290
     1
176
     1
290
     1
176
     1
290
     0
176
     1
290
     0
176
     1
290
     0
176
     1
290
     0
176
     1
290
     0
176
     1
290
     0
176
     1
 90
       50
176
     1
 40
0.0
176
     1
 40
1.0
176
     1
 90
        0
176
     1
 62
    18
420
        0
176
     1
 90
       50
176
     1
 90
        3
176
     1
 62
     5
420
      255
176
     1
290
     0
176
     1
 90
       50
176
     1
 90
       50
176
     1
 90
       50
176
     1
290
     0
176
     1
 90
       50
176
     1
 62
   256
176
     0
 40
1.0
176
     0
 90
        2
176
     1
  1
strokes_ogs.tif
176
     1
290
     0
176
     1
 40
1.0
176
     1
 40
1.0
176
     1
  0
VISUALSTYLE
  5
30
102
{ACAD_REACTORS
330
2A
102
}
330
2A
100
AcDbVisualStyle
  2
Wireframe
 70
     5
177
     3
291
     0
 70
    58
 90
        0
176
     1
 90
        2
176
     1
 90
        0
176
     1
 90
        0
176
     1
 40
0.6
176
     1
 40
30.0
176
     1
 62
     7
420
 16777215
176
     1
 90
        1
176
     1
 90
        4
176
     1
 62
     7
176
     1
 62
   257
176
     1
 90
        1
176
     1
 90
        1
176
     1
 40
1.0
176
     1
 90
        0
176
     1
 62
   257
176
     1
 40
1.0
176
     1
 90
        1
176
     1
 90
        6
176
     1
 90
        2
176
     1
 62
     7
176
     1
 90
        3
176
     1
 90
        0
176
     1
 90
        0
176
     1
290
     0
176
     1
 90
        1
176
     1
 40
0.0
176
     1
 90
        0
176
     1
290
     0
176
     1
290
     1
176
     1
290
     1
176
     1
290
     0
176
     1
290
     0
176
     1
290
     0
176
     1
290
     0
176
     1
290
     0
176
     1
290
     0
176
     1
 90
       50
176
     1
 40
0.0
176
     1
 40
1.0
176
     1
 90
        0
176
     1
 62
    18
420
        0
176
     1
 90
       50
176
     1
 90
        3
176
     1
 62
     5
420
      255
176
     1
290
     0
176
     1
 90
       50
176
     1
 90
       50
176
     1
 90
       50
176
     1
290
     0
176
     1
 90
       50
176
     1
 62
   256
176
     0
 40
1.0
176
     0
 90
        2
176
     1
  1
strokes_ogs.tif
176
     1
290
     0
176
     1
 40
1.0
176
     1
 40
1.0
176
     1
  0
VISUALSTYLE
  5
40
102
{ACAD_REACTORS
330
2A
102
}
330
2A
100
AcDbVisualStyle
  2
X-Ray
 70
    25
177
     3
291
     0
 70
    58
 90
        2
176
     1
 90
        2
176
     1
 90
        1
176
     1
 90
        1
176
     1
 40
0.5
176
     1
 40
30.0
176
     1
 62
     7
420
 16777215
176
     1
 90
        1
176
     1
 90
        0
176
     1
 62
     7
176
     1
 62
   257
176
     1
 90
        1
176
     1
 90
        1
176
     1
 40
1.0
176
     1
 90
        8
176
     1
 62
     7
176
     1
 40
1.0
176
     1
 90
        1
176
     1
 90
        6
176
     1
 90
        2
176
     1
 62
     7
176
     1
 90
        3
176
     1
 90
        0
176
     1
 90
        0
176
     1
290
     0
176
     1
 90
       13
176
     1
 40
0.0
176
     1
 90
        0
176
     1
290
     0
176
     1
290
     1
176
     1
290
     1
176
     1
290
     0
176
     1
290
     0
176
     1
290
     0
176
     1
290
     0
176
     1
290
     0
176
     1
290
     0
176
     1
 90
       50
176
     1
 40
0.0
176
     1
 40
1.0
176
     1
 90
        0
176
     1
 62
    18
420
        0
176
     1
 90
       50
176
     1
 90
        3
176
     1
 62
     5
420
      255
176
     1
290
     0
176
     1
 90
       50
176
     1
 90
       50
176
     1
 90
       50
176
     1
290
     0
176
     1
 90
       50
176
     1
 62
   256
176
     0
 40
1.0
176
     0
 90
        2
176
     1
  1
strokes_ogs.tif
176
     1
290
     0
176
     1
 40
1.0
176
     1
 40
1.0
176
     1
  0
DICTIONARYVAR
  5
19A
102
{ACAD_REACTORS
330
199
102
}
330
199
100
DictionaryVariables
280
     0
  1
1:1
  0
DICTIONARYVAR
  5
1A2
102
{ACAD_REACTORS
330
199
102
}
330
199
100
DictionaryVariables
280
     0
  1
3.500000
  0
DICTIONARYVAR
  5
1A3
102
{ACAD_REACTORS
330
199
102
}
330
199
100
DictionaryVariables
280
     0
  1
acadiso.lin
  0
DICTIONARYVAR
  5
19F
102
{ACAD_REACTORS
330
199
102
}
330
199
100
DictionaryVariables
280
     0
  1
Standard
  0
DICTIONARYVAR
  5
19E
102
{ACAD_REACTORS
330
199
102
}
330
199
100
DictionaryVariables
280
     0
  1
Standard
  0
DICTIONARY
  5
19B
330
6A
100
AcDbDictionary
280
     1
281
     1
  3
ACAD_ROUNDTRIP_2008_TABLESTYLE_CELLSTYLEMAP
360
19C
  0
CELLSTYLEMAP
  5
19C
102
{ACAD_REACTORS
330
19B
102
}
330
19B
100
AcDbCellStyleMap
 90
        3
300
CELLSTYLE
  1
TABLEFORMAT_BEGIN
 90
        5
170
     1
 91
        0
 92
    32768
 62
   257
 93
        1
300
CONTENTFORMAT
  1
CONTENTFORMAT_BEGIN
 90
        0
 91
        0
 92
        4
 93
        0
300

 40
0.0
140
1.0
 94
        5
 62
     0
340
11
144
6.0
309
CONTENTFORMAT_END
171
     1
301
MARGIN
  1
CELLMARGIN_BEGIN
 40
1.5
 40
1.5
 40
1.5
 40
1.5
 40
1.5
 40
1.5
309
CELLMARGIN_END
 94
        6
 95
        1
302
GRIDFORMAT
  1
GRIDFORMAT_BEGIN
 90
        0
 91
        1
 62
     0
 92
       -2
340
14
 93
        0
 40
0.045
309
GRIDFORMAT_END
 95
        2
302
GRIDFORMAT
  1
GRIDFORMAT_BEGIN
 90
        0
 91
        1
 62
     0
 92
       -2
340
14
 93
        0
 40
0.045
309
GRIDFORMAT_END
 95
        4
302
GRIDFORMAT
  1
GRIDFORMAT_BEGIN
 90
        0
 91
        1
 62
     0
 92
       -2
340
14
 93
        0
 40
0.045
309
GRIDFORMAT_END
 95
        8
302
GRIDFORMAT
  1
GRIDFORMAT_BEGIN
 90
        0
 91
        1
 62
     0
 92
       -2
340
14
 93
        0
 40
0.045
309
GRIDFORMAT_END
 95
       16
302
GRIDFORMAT
  1
GRIDFORMAT_BEGIN
 90
        0
 91
        1
 62
     0
 92
       -2
340
14
 93
        0
 40
0.045
309
GRIDFORMAT_END
 95
       32
302
GRIDFORMAT
  1
GRIDFORMAT_BEGIN
 90
        0
 91
        1
 62
     0
 92
       -2
340
14
 93
        0
 40
0.045
309
GRIDFORMAT_END
309
TABLEFORMAT_END
  1
CELLSTYLE_BEGIN
 90
        1
 91
        1
300
_TITLE
309
CELLSTYLE_END
300
CELLSTYLE
  1
TABLEFORMAT_BEGIN
 90
        5
170
     1
 91
        0
 92
        0
 62
   257
 93
        1
300
CONTENTFORMAT
  1
CONTENTFORMAT_BEGIN
 90
        0
 91
        0
 92
        4
 93
        0
300

 40
0.0
140
1.0
 94
        5
 62
     0
340
11
144
4.5
309
CONTENTFORMAT_END
171
     1
301
MARGIN
  1
CELLMARGIN_BEGIN
 40
1.5
 40
1.5
 40
1.5
 40
1.5
 40
1.5
 40
1.5
309
CELLMARGIN_END
 94
        6
 95
        1
302
GRIDFORMAT
  1
GRIDFORMAT_BEGIN
 90
        0
 91
        1
 62
     0
 92
       -2
340
14
 93
        0
 40
0.045
309
GRIDFORMAT_END
 95
        2
302
GRIDFORMAT
  1
GRIDFORMAT_BEGIN
 90
        0
 91
        1
 62
     0
 92
       -2
340
14
 93
        0
 40
0.045
309
GRIDFORMAT_END
 95
        4
302
GRIDFORMAT
  1
GRIDFORMAT_BEGIN
 90
        0
 91
        1
 62
     0
 92
       -2
340
14
 93
        0
 40
0.045
309
GRIDFORMAT_END
 95
        8
302
GRIDFORMAT
  1
GRIDFORMAT_BEGIN
 90
        0
 91
        1
 62
     0
 92
       -2
340
14
 93
        0
 40
0.045
309
GRIDFORMAT_END
 95
       16
302
GRIDFORMAT
  1
GRIDFORMAT_BEGIN
 90
        0
 91
        1
 62
     0
 92
       -2
340
14
 93
        0
 40
0.045
309
GRIDFORMAT_END
 95
       32
302
GRIDFORMAT
  1
GRIDFORMAT_BEGIN
 90
        0
 91
        1
 62
     0
 92
       -2
340
14
 93
        0
 40
0.045
309
GRIDFORMAT_END
309
TABLEFORMAT_END
  1
CELLSTYLE_BEGIN
 90
        2
 91
        1
300
_HEADER
309
CELLSTYLE_END
300
CELLSTYLE
  1
TABLEFORMAT_BEGIN
 90
        5
170
     1
 91
        0
 92
        0
 62
   257
 93
        1
300
CONTENTFORMAT
  1
CONTENTFORMAT_BEGIN
 90
        0
 91
        0
 92
        4
 93
        0
300

 40
0.0
140
1.0
 94
        2
 62
     0
340
11
144
4.5
309
CONTENTFORMAT_END
171
     1
301
MARGIN
  1
CELLMARGIN_BEGIN
 40
1.5
 40
1.5
 40
1.5
 40
1.5
 40
1.5
 40
1.5
309
CELLMARGIN_END
 94
        6
 95
        1
302
GRIDFORMAT
  1
GRIDFORMAT_BEGIN
 90
        0
 91
        1
 62
     0
 92
       -2
340
14
 93
        0
 40
0.045
309
GRIDFORMAT_END
 95
        2
302
GRIDFORMAT
  1
GRIDFORMAT_BEGIN
 90
        0
 91
        1
 62
     0
 92
       -2
340
14
 93
        0
 40
0.045
309
GRIDFORMAT_END
 95
        4
302
GRIDFORMAT
  1
GRIDFORMAT_BEGIN
 90
        0
 91
        1
 62
     0
 92
       -2
340
14
 93
        0
 40
0.045
309
GRIDFORMAT_END
 95
        8
302
GRIDFORMAT
  1
GRIDFORMAT_BEGIN
 90
        0
 91
        1
 62
     0
 92
       -2
340
14
 93
        0
 40
0.045
309
GRIDFORMAT_END
 95
       16
302
GRIDFORMAT
  1
GRIDFORMAT_BEGIN
 90
        0
 91
        1
 62
     0
 92
       -2
340
14
 93
        0
 40
0.045
309
GRIDFORMAT_END
 95
       32
302
GRIDFORMAT
  1
GRIDFORMAT_BEGIN
 90
        0
 91
        1
 62
     0
 92
       -2
340
14
 93
        0
 40
0.045
309
GRIDFORMAT_END
309
TABLEFORMAT_END
  1
CELLSTYLE_BEGIN
 90
        3
 91
        2
300
_DATA
309
CELLSTYLE_END
  0
ENDSEC
  0
EOF
