  0
SECTION
  2
HEADER
  9
$ACADVER
  1
AC1032
  9
$ACADMAINTVER
 90
        4
  9
$DWGCODEPAGE
  3
ANSI_1251
  9
$REQUIREDVERSIONS
160
                 0
  9
$INSBASE
 10
0.0
 20
0.0
 30
0.0
  9
$EXTMIN
 10
0.0
 20
0.0
 30
0.0
  9
$EXTMAX
 10
210.0
 20
1020.0
 30
0.0
  9
$LIMMIN
 10
0.0
 20
0.0
  9
$LIMMAX
 10
210.0
 20
1020.0
  9
$ORTHOMODE
 70
     0
  9
$REGENMODE
 70
     1
  9
$FILLMODE
 70
     1
  9
$QTEXTMODE
 70
     0
  9
$MIRRTEXT
 70
     1
  9
$LTSCALE
 40
1.0
  9
$ATTMODE
 70
     1
  9
$TEXTSIZE
 40
3.5
  9
$TRACEWID
 40
1.0
  9
$TEXTSTYLE
  7
Standard
  9
$CLAYER
  8
0
  9
$CELTYPE
  6
ByLayer
  9
$CECOLOR
 62
   256
  9
$CELTSCALE
 40
1.0
  9
$DISPSILH
 70
     0
  9
$DIMSCALE
 40
1.0
  9
$DIMASZ
 40
3.0
  9
$DIMEXO
 40
1.0
  9
$DIMDLI
 40
3.75
  9
$DIMRND
 40
0.0
  9
$DIMDLE
 40
0.0
  9
$DIMEXE
 40
2.0
  9
$DIMTP
 40
0.0
  9
$DIMTM
 40
0.0
  9
$DIMTXT
 40
3.5
  9
$DIMCEN
 40
2.5
  9
$DIMTSZ
 40
0.0
  9
$DIMTOL
 70
     0
  9
$DIMLIM
 70
     0
  9
$DIMTIH
 70
     1
  9
$DIMTOH
 70
     1
  9
$DIMSE1
 70
     0
  9
$DIMSE2
 70
     0
  9
$DIMTAD
 70
     1
  9
$DIMZIN
 70
     0
  9
$DIMBLK
  1

  9
$DIMASO
 70
     1
  9
$DIMSHO
 70
     1
  9
$DIMPOST
  1

  9
$DIMAPOST
  1

  9
$DIMALT
 70
     0
  9
$DIMALTD
 70
     3
  9
$DIMALTF
 40
0.0393700787
  9
$DIMLFAC
 40
1.0
  9
$DIMTOFL
 70
     1
  9
$DIMTVP
 40
0.0
  9
$DIMTIX
 70
     0
  9
$DIMSOXD
 70
     0
  9
$DIMSAH
 70
     0
  9
$DIMBLK1
  1

  9
$DIMBLK2
  1

  9
$DIMSTYLE
  2
ISO-25
  9
$DIMCLRD
 70
     0
  9
$DIMCLRE
 70
     0
  9
$DIMCLRT
 70
     0
  9
$DIMTFAC
 40
1.0
  9
$DIMGAP
 40
1.524
  9
$DIMJUST
 70
     0
  9
$DIMSD1
 70
     0
  9
$DIMSD2
 70
     0
  9
$DIMTOLJ
 70
     0
  9
$DIMTZIN
 70
     0
  9
$DIMALTZ
 70
     0
  9
$DIMALTTZ
 70
     0
  9
$DIMUPT
 70
     0
  9
$DIMDEC
 70
     1
  9
$DIMTDEC
 70
     1
  9
$DIMALTU
 70
     2
  9
$DIMALTTD
 70
     3
  9
$DIMTXSTY
  7
Standard
  9
$DIMAUNIT
 70
     0
  9
$DIMADEC
 70
     2
  9
$DIMALTRND
 40
0.0
  9
$DIMAZIN
 70
     0
  9
$DIMDSEP
 70
    44
  9
$DIMATFIT
 70
     3
  9
$DIMFRAC
 70
     0
  9
$DIMLDRBLK
  1

  9
$DIMLUNIT
 70
     2
  9
$DIMLWD
 70
    -2
  9
$DIMLWE
 70
    -2
  9
$DIMTMOVE
 70
     0
  9
$DIMFXL
 40
1.0
  9
$DIMFXLON
 70
     0
  9
$DIMJOGANG
 40
0.7853981634
  9
$DIMTFILL
 70
     0
  9
$DIMTFILLCLR
 70
     0
  9
$DIMARCSYM
 70
     0
  9
$DIMLTYPE
  6

  9
$DIMLTEX1
  6

  9
$DIMLTEX2
  6

  9
$DIMTXTDIRECTION
 70
     0
  9
$LUNITS
 70
     2
  9
$LUPREC
 70
     2
  9
$SKETCHINC
 40
1.0
  9
$FILLETRAD
 40
10.0
  9
$AUNITS
 70
     0
  9
$AUPREC
 70
     2
  9
$MENU
  1
.
  9
$ELEVATION
 40
0.0
  9
$PELEVATION
 40
0.0
  9
$THICKNESS
 40
0.0
  9
$LIMCHECK
 70
     0
  9
$CHAMFERA
 40
0.0
  9
$CHAMFERB
 40
0.0
  9
$CHAMFERC
 40
0.0
  9
$CHAMFERD
 40
0.0
  9
$SKPOLY
 70
     0
  9
$TDCREATE
 40
2459303.60627213
  9
$TDUCREATE
 40
2459303.48127213
  9
$TDUPDATE
 40
2459303.60627265
  9
$TDUUPDATE
 40
2459303.48127265
  9
$TDINDWG
 40
0.0000000116
  9
$TDUSRTIMER
 40
0.0000000116
  9
$USRTIMER
 70
     1
  9
$ANGBASE
 50
0.0
  9
$ANGDIR
 70
     0
  9
$PDMODE
 70
     0
  9
$PDSIZE
 40
-1.0
  9
$PLINEWID
 40
0.0
  9
$SPLFRAME
 70
     0
  9
$SPLINETYPE
 70
     6
  9
$SPLINESEGS
 70
     8
  9
$HANDSEED
  5
1A5
  9
$SURFTAB1
 70
     6
  9
$SURFTAB2
 70
     6
  9
$SURFTYPE
 70
     6
  9
$SURFU
 70
     6
  9
$SURFV
 70
     6
  9
$UCSBASE
  2

  9
$UCSNAME
  2

  9
$UCSORG
 10
0.0
 20
0.0
 30
0.0
  9
$UCSXDIR
 10
1.0
 20
0.0
 30
0.0
  9
$UCSYDIR
 10
0.0
 20
1.0
 30
0.0
  9
$UCSORTHOREF
  2

  9
$UCSORTHOVIEW
 70
     0
  9
$UCSORGTOP
 10
0.0
 20
0.0
 30
0.0
  9
$UCSORGBOTTOM
 10
0.0
 20
0.0
 30
0.0
  9
$UCSORGLEFT
 10
0.0
 20
0.0
 30
0.0
  9
$UCSORGRIGHT
 10
0.0
 20
0.0
 30
0.0
  9
$UCSORGFRONT
 10
0.0
 20
0.0
 30
0.0
  9
$UCSORGBACK
 10
0.0
 20
0.0
 30
0.0
  9
$PUCSBASE
  2

  9
$PUCSNAME
  2

  9
$PUCSORG
 10
0.0
 20
0.0
 30
0.0
  9
$PUCSXDIR
 10
1.0
 20
0.0
 30
0.0
  9
$PUCSYDIR
 10
0.0
 20
1.0
 30
0.0
  9
$PUCSORTHOREF
  2

  9
$PUCSORTHOVIEW
 70
     0
  9
$PUCSORGTOP
 10
0.0
 20
0.0
 30
0.0
  9
$PUCSORGBOTTOM
 10
0.0
 20
0.0
 30
0.0
  9
$PUCSORGLEFT
 10
0.0
 20
0.0
 30
0.0
  9
$PUCSORGRIGHT
 10
0.0
 20
0.0
 30
0.0
  9
$PUCSORGFRONT
 10
0.0
 20
0.0
 30
0.0
  9
$PUCSORGBACK
 10
0.0
 20
0.0
 30
0.0
  9
$USERI1
 70
     0
  9
$USERI2
 70
     0
  9
$USERI3
 70
     0
  9
$USERI4
 70
     0
  9
$USERI5
 70
     0
  9
$USERR1
 40
0.0
  9
$USERR2
 40
0.0
  9
$USERR3
 40
0.0
  9
$USERR4
 40
0.0
  9
$USERR5
 40
0.0
  9
$WORLDVIEW
 70
     1
  9
$SHADEDGE
 70
     3
  9
$SHADEDIF
 70
    70
  9
$TILEMODE
 70
     1
  9
$MAXACTVP
 70
    64
  9
$PINSBASE
 10
0.0
 20
0.0
 30
0.0
  9
$PLIMCHECK
 70
     0
  9
$PEXTMIN
 10
1.0000000000E+20
 20
1.0000000000E+20
 30
1.0000000000E+20
  9
$PEXTMAX
 10
-1.0000000000E+20
 20
-1.0000000000E+20
 30
-1.0000000000E+20
  9
$PLIMMIN
 10
0.0
 20
0.0
  9
$PLIMMAX
 10
420.0
 20
297.0
  9
$UNITMODE
 70
     0
  9
$VISRETAIN
 70
     1
  9
$PLINEGEN
 70
     0
  9
$PSLTSCALE
 70
     1
  9
$TREEDEPTH
 70
  3020
  9
$CMLSTYLE
  2
Standard
  9
$CMLJUST
 70
     0
  9
$CMLSCALE
 40
20.0
  9
$PROXYGRAPHICS
 70
     1
  9
$MEASUREMENT
 70
     1
  9
$CELWEIGHT
370
    -1
  9
$ENDCAPS
280
     0
  9
$JOINSTYLE
280
     0
  9
$LWDISPLAY
290
     1
  9
$INSUNITS
 70
     4
  9
$HYPERLINKBASE
  1

  9
$STYLESHEET
  1

  9
$XEDIT
290
     1
  9
$CEPSNTYPE
380
     0
  9
$PSTYLEMODE
290
     1
  9
$FINGERPRINTGUID
  2
{a7fb5a74-f7f0-47f3-94ea-e22da091f7bf}
  9
$VERSIONGUID
  2
{FAEB1C32-E019-11D5-929B-00C0DF256EC4}
  9
$EXTNAMES
290
     1
  9
$PSVPSCALE
 40
0.0
  9
$OLESTARTUP
290
     0
  9
$SORTENTS
280
   127
  9
$INDEXCTL
280
     0
  9
$HIDETEXT
280
     1
  9
$XCLIPFRAME
280
     2
  9
$HALOGAP
280
     0
  9
$OBSCOLOR
 70
   257
  9
$OBSLTYPE
280
     0
  9
$INTERSECTIONDISPLAY
280
     0
  9
$INTERSECTIONCOLOR
 70
   257
  9
$DIMASSOC
280
     2
  9
$PROJECTNAME
  1

  9
$CAMERADISPLAY
290
     0
  9
$LENSLENGTH
 40
50.0
  9
$CAMERAHEIGHT
 40
0.0
  9
$STEPSPERSEC
 40
2.0
  9
$STEPSIZE
 40
6.0
  9
$3DDWFPREC
 40
2.0
  9
$PSOLWIDTH
 40
5.0
  9
$PSOLHEIGHT
 40
80.0
  9
$LOFTANG1
 40
1.5707963268
  9
$LOFTANG2
 40
1.5707963268
  9
$LOFTMAG1
 40
0.0
  9
$LOFTMAG2
 40
0.0
  9
$LOFTPARAM
 70
     7
  9
$LOFTNORMALS
280
     1
  9
$LATITUDE
 40
37.795
  9
$LONGITUDE
 40
-122.394
  9
$NORTHDIRECTION
 40
0.0
  9
$TIMEZONE
 70
 -8000
  9
$LIGHTGLYPHDISPLAY
280
     1
  9
$TILEMODELIGHTSYNCH
280
     1
  9
$CMATERIAL
347
44
  9
$SOLIDHIST
280
     0
  9
$SHOWHIST
280
     1
  9
$DWFFRAME
280
     2
  9
$DGNFRAME
280
     2
  9
$REALWORLDSCALE
290
     1
  9
$INTERFERECOLOR
 62
   256
  9
$CSHADOW
280
     0
  9
$SHADOWPLANELOCATION
 40
0.0
  0
ENDSEC
  0
SECTION
  2
CLASSES
  0
CLASS
  1
ACDBDICTIONARYWDFLT
  2
AcDbDictionaryWithDefault
  3
ObjectDBX Classes
 90
        0
 91
        3
280
     0
281
     0
  0
CLASS
  1
VISUALSTYLE
  2
AcDbVisualStyle
  3
ObjectDBX Classes
 90
     4095
 91
        3
280
     0
281
     0
  0
CLASS
  1
MATERIAL
  2
AcDbMaterial
  3
ObjectDBX Classes
 90
     1153
 91
        3
280
     0
281
     0
  0
CLASS
  1
SCALE
  2
AcDbScale
  3
ObjectDBX Classes
 90
     1153
 91
        3
280
     0
281
     0
  0
CLASS
  1
TABLESTYLE
  2
AcDbTableStyle
  3
ObjectDBX Classes
 90
     4095
 91
        3
280
     0
281
     0
  0
CLASS
  1
MLEADERSTYLE
  2
AcDbMLeaderStyle
  3
ACDB_MLEADERSTYLE_CLASS
 90
     4095
 91
        3
280
     0
281
     0
  0
CLASS
  1
SUN
  2
AcDbSun
  3
SCENEOE
 90
     1153
 91
        3
280
     0
281
     0
  0
CLASS
  1
DICTIONARYVAR
  2
AcDbDictionaryVar
  3
ObjectDBX Classes
 90
        0
 91
        3
280
     0
281
     0
  0
CLASS
  1
CELLSTYLEMAP
  2
AcDbCellStyleMap
  3
ObjectDBX Classes
 90
     1152
 91
        3
280
     0
281
     0
  0
ENDSEC
  0
SECTION
  2
TABLES
  0
TABLE
  2
VPORT
  5
8
330
0
100
AcDbSymbolTable
 70
     1
  0
VPORT
  5
29
330
8
100
AcDbSymbolTableRecord
100
AcDbViewportTableRecord
  2
*Active
 70
     0
 10
0.0
 20
0.0
 11
1.0
 21
1.0
 12
105.0
 22
510.0
 13
0.0
 23
0.0
 14
10.0
 24
10.0
 15
10.0
 25
10.0
 16
0.0
 26
0.0
 36
1.0
 17
0.0
 27
0.0
 37
0.0
 40
1020.0
 41
0.2058823529
 42
50.0
 43
0.0
 44
0.0
 50
0.0
 51
0.0
 71
     0
 72
  2000
 73
     1
 74
     3
 75
     0
 76
     0
 77
     0
 78
     0
281
     0
 65
     1
110
0.0
120
0.0
130
0.0
111
1.0
121
0.0
131
0.0
112
0.0
122
1.0
132
0.0
 79
     0
146
0.0
348
2F
 60
     3
 61
     5
292
     1
282
     1
141
0.0
142
0.0
 63
   250
361
6D
  0
ENDTAB
  0
TABLE
  2
LTYPE
  5
5
330
0
100
AcDbSymbolTable
 70
     6
  0
LTYPE
  5
14
330
5
100
AcDbSymbolTableRecord
100
AcDbLinetypeTableRecord
  2
ByBlock
 70
     0
  3

 72
    65
 73
     0
 40
0.0
  0
LTYPE
  5
15
330
5
100
AcDbSymbolTableRecord
100
AcDbLinetypeTableRecord
  2
ByLayer
 70
     0
  3

 72
    65
 73
     0
 40
0.0
  0
LTYPE
  5
16
330
5
100
AcDbSymbolTableRecord
100
AcDbLinetypeTableRecord
  2
Continuous
 70
     0
  3
Solid line
 72
    65
 73
     0
 40
0.0
  0
LTYPE
  5
6E
330
5
100
AcDbSymbolTableRecord
100
AcDbLinetypeTableRecord
  2
HIDDEN
 70
     0
  3
Hidden __ __ __ __ __ __ __ __ __ __ __ __ __ __
 72
    65
 73
     2
 40
1.905
 49
1.27
 74
     0
 49
-0.635
 74
     0
  0
LTYPE
  5
6F
330
5
100
AcDbSymbolTableRecord
100
AcDbLinetypeTableRecord
  2
PHANTOM
 70
     0
  3
Phantom ______  __  __  ______  __  __  ______
 72
    65
 73
     6
 40
12.7
 49
6.35
 74
     0
 49
-1.27
 74
     0
 49
1.27
 74
     0
 49
-1.27
 74
     0
 49
1.27
 74
     0
 49
-1.27
 74
     0
  0
LTYPE
  5
70
330
5
100
AcDbSymbolTableRecord
100
AcDbLinetypeTableRecord
  2
CENTER
 70
     0
  3
Center ____ _ ____ _ ____ _ ____ _ ____ _ ____
 72
    65
 73
     4
 40
10.16
 49
6.35
 74
     0
 49
-1.27
 74
     0
 49
1.27
 74
     0
 49
-1.27
 74
     0
  0
LTYPE
  5
71
330
5
100
AcDbSymbolTableRecord
100
AcDbLinetypeTableRecord
  2
CENTERX2
 70
     0
  3
Center (2x) ________  __  ________  __  _____
 72
    65
 73
     4
 40
20.32
 49
12.7
 74
     0
 49
-2.54
 74
     0
 49
2.54
 74
     0
 49
-2.54
 74
     0
  0
LTYPE
  5
72
330
5
100
AcDbSymbolTableRecord
100
AcDbLinetypeTableRecord
  2
DOT2
 70
     0
  3
Dot (.5x) ........................................
 72
    65
 73
     2
 40
0.635
 49
0.0
 74
     0
 49
-0.635
 74
     0
  0
ENDTAB
  0
TABLE
  2
LAYER
  5
2
330
0
100
AcDbSymbolTable
 70
     4
  0
LAYER
  5
10
330
2
100
AcDbSymbolTableRecord
100
AcDbLayerTableRecord
  2
0
 70
     0
 62
     7
  6
Continuous
370
    -3
390
F
347
46
348
0
  0
LAYER
  5
73
330
2
100
AcDbSymbolTableRecord
100
AcDbLayerTableRecord
  2
ЧЕРТЕЖ
 70
     0
 62
     7
  6
Continuous
370
    -3
390
F
347
46
348
0
  0
LAYER
  5
74
330
2
100
AcDbSymbolTableRecord
100
AcDbLayerTableRecord
  2
ОСНОВНАЯ_НАДПИСЬ
 70
     0
 62
     7
  6
Continuous
370
    -3
390
F
347
46
348
0
  0
LAYER
  5
75
330
2
100
AcDbSymbolTableRecord
100
AcDbLayerTableRecord
  2
SLD-0
 70
     0
 62
   179
  6
Continuous
370
    -3
390
F
347
46
348
0
  0
ENDTAB
  0
TABLE
  2
STYLE
  5
3
330
0
100
AcDbSymbolTable
 70
     1
  0
STYLE
  5
11
330
3
100
AcDbSymbolTableRecord
100
AcDbTextStyleTableRecord
  2
Standard
 70
     0
 40
0.0
 41
1.0
 50
0.0
 71
     0
 42
3.5
  3
txt
  4

  0
ENDTAB
  0
TABLE
  2
VIEW
  5
6
330
0
100
AcDbSymbolTable
 70
     0
  0
ENDTAB
  0
TABLE
  2
UCS
  5
7
330
0
100
AcDbSymbolTable
 70
     0
  0
ENDTAB
  0
TABLE
  2
APPID
  5
9
330
0
100
AcDbSymbolTable
 70
     1
  0
APPID
  5
12
330
9
100
AcDbSymbolTableRecord
100
AcDbRegAppTableRecord
  2
ACAD
 70
     0
  0
ENDTAB
  0
TABLE
  2
DIMSTYLE
  5
A
330
0
100
AcDbSymbolTable
 70
     1
100
AcDbDimStyleTable
  0
DIMSTYLE
105
27
330
A
100
AcDbSymbolTableRecord
100
AcDbDimStyleTableRecord
  2
ISO-25
 70
     0
 41
2.5
 42
0.625
 43
3.75
 44
1.25
 73
     0
 74
     0
 77
     1
 78
     8
140
2.5
141
2.5
143
0.0393700787
147
0.625
171
     3
172
     1
178
     0
271
     2
272
     2
274
     3
278
    44
283
     0
284
     8
340
11
  0
ENDTAB
  0
TABLE
  2
BLOCK_RECORD
  5
1
330
0
100
AcDbSymbolTable
 70
     1
  0
BLOCK_RECORD
  5
1F
330
1
100
AcDbSymbolTableRecord
100
AcDbBlockTableRecord
  2
*Model_Space
340
22
 70
     0
280
     1
281
     0
  0
BLOCK_RECORD
  5
1B
330
1
100
AcDbSymbolTableRecord
100
AcDbBlockTableRecord
  2
*Paper_Space
340
1E
 70
     0
280
     1
281
     0
  0
BLOCK_RECORD
  5
23
330
1
100
AcDbSymbolTableRecord
100
AcDbBlockTableRecord
  2
*Paper_Space0
340
26
 70
     0
280
     1
281
     0
  0
ENDTAB
  0
ENDSEC
  0
SECTION
  2
BLOCKS
  0
BLOCK
  5
20
330
1F
100
AcDbEntity
  8
0
100
AcDbBlockBegin
  2
*Model_Space
 70
     0
 10
0.0
 20
0.0
 30
0.0
  3
*Model_Space
  1

  0
ENDBLK
  5
21
330
1F
100
AcDbEntity
  8
0
100
AcDbBlockEnd
  0
BLOCK
  5
1C
330
1B
100
AcDbEntity
 67
     1
  8
0
100
AcDbBlockBegin
  2
*Paper_Space
 70
     0
 10
0.0
 20
0.0
 30
0.0
  3
*Paper_Space
  1

  0
ENDBLK
  5
1D
330
1B
100
AcDbEntity
 67
     1
  8
0
100
AcDbBlockEnd
  0
BLOCK
  5
24
330
23
100
AcDbEntity
  8
0
100
AcDbBlockBegin
  2
*Paper_Space0
 70
     0
 10
0.0
 20
0.0
 30
0.0
  3
*Paper_Space0
  1

  0
ENDBLK
  5
25
330
23
100
AcDbEntity
  8
0
100
AcDbBlockEnd
  0
ENDSEC
  0
SECTION
  2
ENTITIES
  0
LWPOLYLINE
  5
76
330
1F
100
AcDbEntity
  8
0
  6
Continuous
 62
     7
370
    25
100
AcDbPolyline
 90
        3
 70
   128
 43
0.0
 10
95.7417199955
 20
951.3216829578
 10
96.0856683313
 20
951.122974483
 10
96.4098818439
 20
950.9355525874
  0
LWPOLYLINE
  5
77
330
1F
100
AcDbEntity
  8
0
  6
Continuous
 62
     7
370
    25
100
AcDbPolyline
 90
        3
 70
   128
 43
0.0
 10
95.7417199955
 20
950.0516829578
 10
96.0858605338
 20
949.8529151191
 10
96.4098818571
 20
949.6655554913
  0
LWPOLYLINE
  5
78
330
1F
100
AcDbEntity
  8
0
  6
Continuous
 62
     7
370
    25
100
AcDbPolyline
 90
        3
 70
   128
 43
0.0
 10
95.7417199955
 20
948.7816829578
 10
96.0860536882
 20
948.582855746
 10
96.4098818753
 20
948.3955584261
  0
LWPOLYLINE
  5
79
330
1F
100
AcDbEntity
  8
0
  6
Continuous
 62
     7
370
    25
100
AcDbPolyline
 90
        3
 70
   128
 43
0.0
 10
95.7417199955
 20
947.5116829578
 10
96.0862477947
 20
947.3127963637
 10
96.4098818984
 20
947.1255613919
  0
LWPOLYLINE
  5
7A
330
1F
100
AcDbEntity
  8
0
  6
Continuous
 62
     7
370
    25
100
AcDbPolyline
 90
        3
 70
   128
 43
0.0
 10
95.7417199955
 20
946.2416829578
 10
96.0864428533
 20
946.0427369723
 10
96.4098819264
 20
945.8555643888
  0
LWPOLYLINE
  5
7B
330
1F
100
AcDbEntity
  8
0
  6
Continuous
 62
     7
370
    25
100
AcDbPolyline
 90
        3
 70
   128
 43
0.0
 10
95.7417199955
 20
944.9716829578
 10
96.0866388642
 20
944.7726775717
 10
96.4098819591
 20
944.5855674169
  0
LWPOLYLINE
  5
7C
330
1F
100
AcDbEntity
  8
0
  6
Continuous
 62
     7
370
    25
100
AcDbPolyline
 90
        3
 70
   128
 43
0.0
 10
95.7417199955
 20
943.7016829578
 10
96.0868358275
 20
943.502618162
 10
96.4098819966
 20
943.3155704763
  0
LWPOLYLINE
  5
7D
330
1F
100
AcDbEntity
  8
0
  6
Continuous
 62
     7
370
    25
100
AcDbPolyline
 90
        3
 70
   128
 43
0.0
 10
95.7417199955
 20
942.4316829578
 10
96.0870337434
 20
942.2325587431
 10
96.4098820388
 20
942.0455735672
  0
LWPOLYLINE
  5
7E
330
1F
100
AcDbEntity
  8
0
  6
Continuous
 62
     7
370
    25
100
AcDbPolyline
 90
        3
 70
   128
 43
0.0
 10
95.7417199955
 20
941.1616829578
 10
96.0872326118
 20
940.9624993151
 10
96.4098820855
 20
940.7755766897
  0
LWPOLYLINE
  5
7F
330
1F
100
AcDbEntity
  8
0
  6
Continuous
 62
     7
370
    25
100
AcDbPolyline
 90
        3
 70
   128
 43
0.0
 10
95.7417199955
 20
939.8916829578
 10
96.087432433
 20
939.692439878
 10
96.4098821369
 20
939.5055798438
  0
LWPOLYLINE
  5
80
330
1F
100
AcDbEntity
  8
0
  6
Continuous
 62
     7
370
    25
100
AcDbPolyline
 90
        3
 70
   128
 43
0.0
 10
95.7417199955
 20
938.6216829578
 10
96.087633207
 20
938.4223804318
 10
96.4098821927
 20
938.2355830298
  0
LWPOLYLINE
  5
81
330
1F
100
AcDbEntity
  8
0
  6
Continuous
 62
     7
370
    25
100
AcDbPolyline
 90
        3
 70
   128
 43
0.0
 10
95.7417199955
 20
937.3516829578
 10
96.0878349341
 20
937.1523209764
 10
96.409882253
 20
936.9655862478
  0
LWPOLYLINE
  5
82
330
1F
100
AcDbEntity
  8
0
  6
Continuous
 62
     7
370
    25
100
AcDbPolyline
 90
        3
 70
   128
 43
0.0
 10
95.7417199955
 20
936.0816829578
 10
96.0880376142
 20
935.882261512
 10
96.4098823176
 20
935.6955894978
  0
LWPOLYLINE
  5
83
330
1F
100
AcDbEntity
  8
0
  6
Continuous
 62
     7
370
    25
100
AcDbPolyline
 90
        3
 70
   128
 43
0.0
 10
95.7417199955
 20
934.8116829578
 10
96.0882412475
 20
934.6122020385
 10
96.4098823865
 20
934.42559278
  0
LWPOLYLINE
  5
84
330
1F
100
AcDbEntity
  8
0
  6
Continuous
 62
     7
370
    25
100
AcDbPolyline
 90
        3
 70
   128
 43
0.0
 10
95.7417199955
 20
933.5416829578
 10
96.0884458341
 20
933.3421425558
 10
96.4098824597
 20
933.1555960946
  0
LWPOLYLINE
  5
85
330
1F
100
AcDbEntity
  8
0
  6
Continuous
 62
     7
370
    25
100
AcDbPolyline
 90
        3
 70
   128
 43
0.0
 10
95.7417199955
 20
932.2716829578
 10
96.0886513742
 20
932.0720830641
 10
96.409882537
 20
931.8855994417
  0
LWPOLYLINE
  5
86
330
1F
100
AcDbEntity
  8
0
  6
Continuous
 62
     7
370
    25
100
AcDbPolyline
 90
        3
 70
   128
 43
0.0
 10
116.3319691694
 20
951.5666638991
 10
116.6757819681
 20
951.7652667579
 10
117.0197481228
 20
951.9639857945
  0
LWPOLYLINE
  5
87
330
1F
100
AcDbEntity
  8
0
  6
Continuous
 62
     7
370
    25
100
AcDbPolyline
 90
        3
 70
   128
 43
0.0
 10
116.3319691694
 20
950.2966638991
 10
116.6757068915
 20
950.4952085849
 10
117.0197481228
 20
950.6939857945
  0
LWPOLYLINE
  5
88
330
1F
100
AcDbEntity
  8
0
  6
Continuous
 62
     7
370
    25
100
AcDbPolyline
 90
        3
 70
   128
 43
0.0
 10
116.3319691694
 20
949.0266638991
 10
116.6756308794
 20
949.225150402
 10
117.0197481228
 20
949.4239857945
  0
LWPOLYLINE
  5
89
330
1F
100
AcDbEntity
  8
0
  6
Continuous
 62
     7
370
    25
100
AcDbPolyline
 90
        3
 70
   128
 43
0.0
 10
116.3319691694
 20
947.7566638991
 10
116.6755539316
 20
947.9550922091
 10
117.0197481228
 20
948.1539857945
  0
LWPOLYLINE
  5
8A
330
1F
100
AcDbEntity
  8
0
  6
Continuous
 62
     7
370
    25
100
AcDbPolyline
 90
        3
 70
   128
 43
0.0
 10
116.3319691694
 20
946.4866638991
 10
116.6754760479
 20
946.6850340062
 10
117.0197481228
 20
946.8839857945
  0
LWPOLYLINE
  5
8B
330
1F
100
AcDbEntity
  8
0
  6
Continuous
 62
     7
370
    25
100
AcDbPolyline
 90
        3
 70
   128
 43
0.0
 10
116.3319691694
 20
945.2166638991
 10
116.6753972282
 20
945.4149757932
 10
117.0197481228
 20
945.6139857945
  0
LWPOLYLINE
  5
8C
330
1F
100
AcDbEntity
  8
0
  6
Continuous
 62
     7
370
    25
100
AcDbPolyline
 90
        3
 70
   128
 43
0.0
 10
116.3319691694
 20
943.9466638991
 10
116.6753174724
 20
944.1449175703
 10
117.0197481228
 20
944.3439857945
  0
LWPOLYLINE
  5
8D
330
1F
100
AcDbEntity
  8
0
  6
Continuous
 62
     7
370
    25
100
AcDbPolyline
 90
        3
 70
   128
 43
0.0
 10
116.3319691694
 20
942.6766638991
 10
116.6752367804
 20
942.8748593375
 10
117.0197481228
 20
943.0739857945
  0
LWPOLYLINE
  5
8E
330
1F
100
AcDbEntity
  8
0
  6
Continuous
 62
     7
370
    25
100
AcDbPolyline
 90
        3
 70
   128
 43
0.0
 10
116.3319691694
 20
941.4066638991
 10
116.6751551519
 20
941.6048010946
 10
117.0197481228
 20
941.8039857945
  0
LWPOLYLINE
  5
8F
330
1F
100
AcDbEntity
  8
0
  6
Continuous
 62
     7
370
    25
100
AcDbPolyline
 90
        3
 70
   128
 43
0.0
 10
116.3319691694
 20
940.1366638991
 10
116.6750725868
 20
940.3347428418
 10
117.0197481228
 20
940.5339857945
  0
LWPOLYLINE
  5
90
330
1F
100
AcDbEntity
  8
0
  6
Continuous
 62
     7
370
    25
100
AcDbPolyline
 90
        3
 70
   128
 43
0.0
 10
116.3319691694
 20
938.8666638991
 10
116.674989085
 20
939.0646845791
 10
117.0197481228
 20
939.2639857945
  0
LWPOLYLINE
  5
91
330
1F
100
AcDbEntity
  8
0
  6
Continuous
 62
     7
370
    25
100
AcDbPolyline
 90
        3
 70
   128
 43
0.0
 10
116.3319691694
 20
937.5966638991
 10
116.6749046463
 20
937.7946263063
 10
117.0197481228
 20
937.9939857945
  0
LWPOLYLINE
  5
92
330
1F
100
AcDbEntity
  8
0
  6
Continuous
 62
     7
370
    25
100
AcDbPolyline
 90
        3
 70
   128
 43
0.0
 10
116.3319691694
 20
936.3266638991
 10
116.6748192707
 20
936.5245680237
 10
117.0197481228
 20
936.7239857945
  0
LWPOLYLINE
  5
93
330
1F
100
AcDbEntity
  8
0
  6
Continuous
 62
     7
370
    25
100
AcDbPolyline
 90
        3
 70
   128
 43
0.0
 10
116.3319691694
 20
935.0566638991
 10
116.6747329579
 20
935.2545097311
 10
117.0197481228
 20
935.4539857945
  0
LWPOLYLINE
  5
94
330
1F
100
AcDbEntity
  8
0
  6
Continuous
 62
     7
370
    25
100
AcDbPolyline
 90
        3
 70
   128
 43
0.0
 10
116.3319691694
 20
933.7866638991
 10
116.6746457078
 20
933.9844514286
 10
117.0197481228
 20
934.1839857945
  0
LWPOLYLINE
  5
95
330
1F
100
AcDbEntity
  8
0
  6
Continuous
 62
     7
370
    25
100
AcDbPolyline
 90
        3
 70
   128
 43
0.0
 10
116.3319691694
 20
932.5166638991
 10
116.6745575202
 20
932.7143931161
 10
117.0197481228
 20
932.9139857945
  0
LWPOLYLINE
  5
96
330
1F
100
AcDbEntity
  8
0
  6
Continuous
 62
     7
370
    25
100
AcDbPolyline
 90
        3
 70
   128
 43
0.0
 10
116.3319691694
 20
931.2466638991
 10
116.6744683951
 20
931.4443347938
 10
117.0197481228
 20
931.6439857945
  0
LWPOLYLINE
  5
97
330
1F
100
AcDbEntity
  8
0
  6
Continuous
 62
     7
370
    25
100
AcDbPolyline
 90
        3
 70
   128
 43
0.0
 10
116.3319691694
 20
952.8366638991
 10
116.6758561093
 20
953.0353249208
 10
116.8181019109
 20
953.1174980278
  0
LWPOLYLINE
  5
98
330
1F
100
AcDbEntity
  8
0
  6
Continuous
 62
     7
370
    25
100
AcDbPolyline
 90
        3
 70
   128
 43
0.0
 10
95.7417199955
 20
952.5916829578
 10
96.0854770807
 20
952.3930338378
 10
96.4098818358
 20
952.2055497142
  0
LWPOLYLINE
  5
99
330
1F
100
AcDbEntity
  8
0
  6
Continuous
 62
     7
370
    25
100
AcDbPolyline
 90
        3
 70
   128
 43
0.0
 10
96.4156900755
 20
87.3418054333
 10
96.0735509572
 20
87.1440830202
 10
96.0722669324
 20
87.143341602
  0
LWPOLYLINE
  5
9A
330
1F
100
AcDbEntity
  8
0
  6
Continuous
 62
     7
370
    25
100
AcDbPolyline
 90
        3
 70
   128
 43
0.0
 10
96.4128721646
 20
951.8936852139
 10
96.0689168481
 20
951.6949677177
 10
95.7251004908
 20
951.4963666447
  0
LWPOLYLINE
  5
9B
330
1F
100
AcDbEntity
  8
0
  6
Continuous
 62
     7
370
    25
100
AcDbPolyline
 90
        3
 70
   128
 43
0.0
 10
96.4128721646
 20
950.6236852139
 10
96.0688459026
 20
950.4249095891
 10
95.7251004908
 20
950.2263666447
  0
LWPOLYLINE
  5
9C
330
1F
100
AcDbEntity
  8
0
  6
Continuous
 62
     7
370
    25
100
AcDbPolyline
 90
        3
 70
   128
 43
0.0
 10
96.4128721646
 20
949.3536852139
 10
96.0687758918
 20
949.1548514705
 10
95.7251004908
 20
948.9563666447
  0
LWPOLYLINE
  5
9D
330
1F
100
AcDbEntity
  8
0
  6
Continuous
 62
     7
370
    25
100
AcDbPolyline
 90
        3
 70
   128
 43
0.0
 10
96.4128721646
 20
948.0836852139
 10
96.0687068157
 20
947.884793362
 10
95.7251004908
 20
947.6863666447
  0
LWPOLYLINE
  5
9E
330
1F
100
AcDbEntity
  8
0
  6
Continuous
 62
     7
370
    25
100
AcDbPolyline
 90
        3
 70
   128
 43
0.0
 10
96.4128721646
 20
946.8136852139
 10
96.068638674
 20
946.6147352635
 10
95.7251004908
 20
946.4163666447
  0
LWPOLYLINE
  5
9F
330
1F
100
AcDbEntity
  8
0
  6
Continuous
 62
     7
370
    25
100
AcDbPolyline
 90
        3
 70
   128
 43
0.0
 10
96.4128721646
 20
945.5436852139
 10
96.0685714667
 20
945.3446771751
 10
95.7251004908
 20
945.1463666447
  0
LWPOLYLINE
  5
A0
330
1F
100
AcDbEntity
  8
0
  6
Continuous
 62
     7
370
    25
100
AcDbPolyline
 90
        3
 70
   128
 43
0.0
 10
96.4128721646
 20
944.2736852139
 10
96.0685051935
 20
944.0746190968
 10
95.7251004908
 20
943.8763666447
  0
LWPOLYLINE
  5
A1
330
1F
100
AcDbEntity
  8
0
  6
Continuous
 62
     7
370
    25
100
AcDbPolyline
 90
        3
 70
   128
 43
0.0
 10
96.4128721646
 20
943.0036852139
 10
96.0684398543
 20
942.8045610285
 10
95.7251004908
 20
942.6063666447
  0
LWPOLYLINE
  5
A2
330
1F
100
AcDbEntity
  8
0
  6
Continuous
 62
     7
370
    25
100
AcDbPolyline
 90
        3
 70
   128
 43
0.0
 10
96.4128721646
 20
941.7336852139
 10
96.0683754489
 20
941.5345029704
 10
95.7251004908
 20
941.3363666447
  0
LWPOLYLINE
  5
A3
330
1F
100
AcDbEntity
  8
0
  6
Continuous
 62
     7
370
    25
100
AcDbPolyline
 90
        3
 70
   128
 43
0.0
 10
96.4128721646
 20
940.4636852139
 10
96.0683119773
 20
940.2644449223
 10
95.7251004908
 20
940.0663666447
  0
LWPOLYLINE
  5
A4
330
1F
100
AcDbEntity
  8
0
  6
Continuous
 62
     7
370
    25
100
AcDbPolyline
 90
        3
 70
   128
 43
0.0
 10
96.4128721646
 20
939.1936852139
 10
96.0682494392
 20
938.9943868843
 10
95.7251004908
 20
938.7963666447
  0
LWPOLYLINE
  5
A5
330
1F
100
AcDbEntity
  8
0
  6
Continuous
 62
     7
370
    25
100
AcDbPolyline
 90
        3
 70
   128
 43
0.0
 10
96.4128721646
 20
937.9236852139
 10
96.0681878346
 20
937.7243288564
 10
95.7251004908
 20
937.5263666447
  0
LWPOLYLINE
  5
A6
330
1F
100
AcDbEntity
  8
0
  6
Continuous
 62
     7
370
    25
100
AcDbPolyline
 90
        3
 70
   128
 43
0.0
 10
96.4128721646
 20
936.6536852139
 10
96.0681271632
 20
936.4542708386
 10
95.7251004908
 20
936.2563666447
  0
LWPOLYLINE
  5
A7
330
1F
100
AcDbEntity
  8
0
  6
Continuous
 62
     7
370
    25
100
AcDbPolyline
 90
        3
 70
   128
 43
0.0
 10
96.4128721646
 20
935.3836852139
 10
96.0680674249
 20
935.1842128309
 10
95.7251004908
 20
934.9863666447
  0
LWPOLYLINE
  5
A8
330
1F
100
AcDbEntity
  8
0
  6
Continuous
 62
     7
370
    25
100
AcDbPolyline
 90
        3
 70
   128
 43
0.0
 10
96.4128721646
 20
934.1136852139
 10
96.0680086196
 20
933.9141548334
 10
95.7251004908
 20
933.7163666447
  0
LWPOLYLINE
  5
A9
330
1F
100
AcDbEntity
  8
0
  6
Continuous
 62
     7
370
    25
100
AcDbPolyline
 90
        3
 70
   128
 43
0.0
 10
96.4128721646
 20
932.8436852139
 10
96.0679507471
 20
932.644096846
 10
95.7251004908
 20
932.4463666447
  0
LWPOLYLINE
  5
AA
330
1F
100
AcDbEntity
  8
0
  6
Continuous
 62
     7
370
    25
100
AcDbPolyline
 90
        3
 70
   128
 43
0.0
 10
96.4128721646
 20
931.5736852139
 10
96.0678938073
 20
931.3740388687
 10
95.7251004908
 20
931.1763666447
  0
LWPOLYLINE
  5
AB
330
1F
100
AcDbEntity
  8
0
  6
Continuous
 62
     7
370
    25
100
AcDbPolyline
 90
        3
 70
   128
 43
0.0
 10
116.9713447093
 20
950.8762275145
 10
116.6289406181
 20
951.0747338323
 10
116.2859590064
 20
951.2733610392
  0
LWPOLYLINE
  5
AC
330
1F
100
AcDbEntity
  8
0
  6
Continuous
 62
     7
370
    25
100
AcDbPolyline
 90
        3
 70
   128
 43
0.0
 10
116.9713447093
 20
949.6062275145
 10
116.6292482568
 20
949.804673415
 10
116.2859590064
 20
950.0033610392
  0
LWPOLYLINE
  5
AD
330
1F
100
AcDbEntity
  8
0
  6
Continuous
 62
     7
370
    25
100
AcDbPolyline
 90
        3
 70
   128
 43
0.0
 10
116.9713447093
 20
948.3362275145
 10
116.6295549313
 20
948.534613006
 10
116.2859590064
 20
948.7333610392
  0
LWPOLYLINE
  5
AE
330
1F
100
AcDbEntity
  8
0
  6
Continuous
 62
     7
370
    25
100
AcDbPolyline
 90
        3
 70
   128
 43
0.0
 10
116.9713447093
 20
947.0662275145
 10
116.6298606417
 20
947.2645526053
 10
116.2859590064
 20
947.4633610392
  0
LWPOLYLINE
  5
AF
330
1F
100
AcDbEntity
  8
0
  6
Continuous
 62
     7
370
    25
100
AcDbPolyline
 90
        3
 70
   128
 43
0.0
 10
116.9713447093
 20
945.7962275145
 10
116.6301653882
 20
945.9944922129
 10
116.2859590064
 20
946.1933610392
  0
LWPOLYLINE
  5
B0
330
1F
100
AcDbEntity
  8
0
  6
Continuous
 62
     7
370
    25
100
AcDbPolyline
 90
        3
 70
   128
 43
0.0
 10
116.9713447093
 20
944.5262275145
 10
116.6304691708
 20
944.7244318289
 10
116.2859590064
 20
944.9233610392
  0
LWPOLYLINE
  5
B1
330
1F
100
AcDbEntity
  8
0
  6
Continuous
 62
     7
370
    25
100
AcDbPolyline
 90
        3
 70
   128
 43
0.0
 10
116.9713447093
 20
943.2562275145
 10
116.6307719897
 20
943.4543714532
 10
116.2859590064
 20
943.6533610392
  0
LWPOLYLINE
  5
B2
330
1F
100
AcDbEntity
  8
0
  6
Continuous
 62
     7
370
    25
100
AcDbPolyline
 90
        3
 70
   128
 43
0.0
 10
116.9713447093
 20
941.9862275145
 10
116.6310738448
 20
942.1843110859
 10
116.2859590064
 20
942.3833610392
  0
LWPOLYLINE
  5
B3
330
1F
100
AcDbEntity
  8
0
  6
Continuous
 62
     7
370
    25
100
AcDbPolyline
 90
        3
 70
   128
 43
0.0
 10
116.9713447093
 20
940.7162275145
 10
116.6313747363
 20
940.9142507269
 10
116.2859590064
 20
941.1133610392
  0
LWPOLYLINE
  5
B4
330
1F
100
AcDbEntity
  8
0
  6
Continuous
 62
     7
370
    25
100
AcDbPolyline
 90
        3
 70
   128
 43
0.0
 10
116.9713447093
 20
939.4462275145
 10
116.6316746643
 20
939.6441903762
 10
116.2859590064
 20
939.8433610392
  0
LWPOLYLINE
  5
B5
330
1F
100
AcDbEntity
  8
0
  6
Continuous
 62
     7
370
    25
100
AcDbPolyline
 90
        3
 70
   128
 43
0.0
 10
116.9713447093
 20
938.1762275145
 10
116.6319736289
 20
938.374130034
 10
116.2859590064
 20
938.5733610392
  0
LWPOLYLINE
  5
B6
330
1F
100
AcDbEntity
  8
0
  6
Continuous
 62
     7
370
    25
100
AcDbPolyline
 90
        3
 70
   128
 43
0.0
 10
116.9713447093
 20
936.9062275145
 10
116.6322716302
 20
937.1040697001
 10
116.2859590064
 20
937.3033610392
  0
LWPOLYLINE
  5
B7
330
1F
100
AcDbEntity
  8
0
  6
Continuous
 62
     7
370
    25
100
AcDbPolyline
 90
        3
 70
   128
 43
0.0
 10
116.9713447093
 20
935.6362275145
 10
116.6325686681
 20
935.8340093746
 10
116.2859590064
 20
936.0333610392
  0
LWPOLYLINE
  5
B8
330
1F
100
AcDbEntity
  8
0
  6
Continuous
 62
     7
370
    25
100
AcDbPolyline
 90
        3
 70
   128
 43
0.0
 10
116.9713447093
 20
934.3662275145
 10
116.632864743
 20
934.5639490575
 10
116.2859590064
 20
934.7633610392
  0
LWPOLYLINE
  5
B9
330
1F
100
AcDbEntity
  8
0
  6
Continuous
 62
     7
370
    25
100
AcDbPolyline
 90
        3
 70
   128
 43
0.0
 10
116.9713447093
 20
933.0962275145
 10
116.6331598547
 20
933.2938887487
 10
116.2859590064
 20
933.4933610392
  0
LWPOLYLINE
  5
BA
330
1F
100
AcDbEntity
  8
0
  6
Continuous
 62
     7
370
    25
100
AcDbPolyline
 90
        3
 70
   128
 43
0.0
 10
116.9713447093
 20
931.8262275145
 10
116.6334540035
 20
932.0238284484
 10
116.2859590064
 20
932.2233610392
  0
LWPOLYLINE
  5
BB
330
1F
100
AcDbEntity
  8
0
  6
Continuous
 62
     7
370
    25
100
AcDbPolyline
 90
        3
 70
   128
 43
0.0
 10
116.9713447093
 20
930.5562275145
 10
116.6337471893
 20
930.7537681565
 10
116.2859590064
 20
930.9533610392
  0
LWPOLYLINE
  5
BC
330
1F
100
AcDbEntity
  8
0
  6
Continuous
 62
     7
370
    25
100
AcDbPolyline
 90
        3
 70
   128
 43
0.0
 10
116.9713447093
 20
952.1462275145
 10
116.6286320153
 20
952.3447942579
 10
116.2859590064
 20
952.5433610392
  0
LWPOLYLINE
  5
BD
330
1F
100
AcDbEntity
  8
0
  6
Continuous
 62
     7
370
    25
100
AcDbPolyline
 90
        3
 70
   128
 43
0.0
 10
96.4128721646
 20
953.1636852139
 10
96.0689887285
 20
952.9650258563
 10
95.7251004908
 20
952.7663666447
  0
LWPOLYLINE
  5
BE
330
1F
100
AcDbEntity
  8
0
  6
Continuous
 62
     7
370
    25
100
AcDbPolyline
 90
        3
 70
   128
 43
0.0
 10
116.5307505452
 20
87.143341602
 10
116.6215823464
 20
87.1955545096
 10
116.9590762311
 20
87.3932410427
  0
LWPOLYLINE
  5
BF
330
1F
100
AcDbEntity
  8
0
  6
Continuous
 62
     7
370
    25
100
AcDbPolyline
 90
        3
 70
   128
 43
0.0
 10
95.7275883591
 20
88.0436155392
 10
96.0700140541
 20
87.8458966801
 10
96.4098866613
 20
87.6494820967
  0
LINE
  5
C0
330
1F
100
AcDbEntity
  8
0
  6
Continuous
 62
     7
370
    25
100
AcDbLine
 10
117.0224741662
 20
951.9682984181
 30
0.0
 11
117.0224741662
 21
952.1272405375
 31
0.0
  0
LINE
  5
C1
330
1F
100
AcDbEntity
  8
0
  6
Continuous
 62
     7
370
    25
100
AcDbLine
 10
117.0224741662
 20
950.6982984181
 30
0.0
 11
117.0224741662
 21
950.8572405375
 31
0.0
  0
LINE
  5
C2
330
1F
100
AcDbEntity
  8
0
  6
Continuous
 62
     7
370
    25
100
AcDbLine
 10
117.0224741662
 20
949.4282984181
 30
0.0
 11
117.0224741662
 21
949.5872405375
 31
0.0
  0
LINE
  5
C3
330
1F
100
AcDbEntity
  8
0
  6
Continuous
 62
     7
370
    25
100
AcDbLine
 10
117.0224741662
 20
948.1582984181
 30
0.0
 11
117.0224741662
 21
948.3172405375
 31
0.0
  0
LINE
  5
C4
330
1F
100
AcDbEntity
  8
0
  6
Continuous
 62
     7
370
    25
100
AcDbLine
 10
117.0224741662
 20
946.8882984181
 30
0.0
 11
117.0224741662
 21
947.0472405375
 31
0.0
  0
LINE
  5
C5
330
1F
100
AcDbEntity
  8
0
  6
Continuous
 62
     7
370
    25
100
AcDbLine
 10
117.0224741662
 20
945.6182984181
 30
0.0
 11
117.0224741662
 21
945.7772405375
 31
0.0
  0
LINE
  5
C6
330
1F
100
AcDbEntity
  8
0
  6
Continuous
 62
     7
370
    25
100
AcDbLine
 10
117.0224741662
 20
944.3482984181
 30
0.0
 11
117.0224741662
 21
944.5072405375
 31
0.0
  0
LINE
  5
C7
330
1F
100
AcDbEntity
  8
0
  6
Continuous
 62
     7
370
    25
100
AcDbLine
 10
117.0224741662
 20
943.0782984181
 30
0.0
 11
117.0224741662
 21
943.2372405375
 31
0.0
  0
LINE
  5
C8
330
1F
100
AcDbEntity
  8
0
  6
Continuous
 62
     7
370
    25
100
AcDbLine
 10
117.0224741662
 20
941.8082984181
 30
0.0
 11
117.0224741662
 21
941.9672405375
 31
0.0
  0
LINE
  5
C9
330
1F
100
AcDbEntity
  8
0
  6
Continuous
 62
     7
370
    25
100
AcDbLine
 10
117.0224741662
 20
940.5382984181
 30
0.0
 11
117.0224741662
 21
940.6972405375
 31
0.0
  0
LINE
  5
CA
330
1F
100
AcDbEntity
  8
0
  6
Continuous
 62
     7
370
    25
100
AcDbLine
 10
117.0224741662
 20
939.2682984181
 30
0.0
 11
117.0224741662
 21
939.4272405375
 31
0.0
  0
LINE
  5
CB
330
1F
100
AcDbEntity
  8
0
  6
Continuous
 62
     7
370
    25
100
AcDbLine
 10
117.0224741662
 20
937.9982984181
 30
0.0
 11
117.0224741662
 21
938.1572405375
 31
0.0
  0
LINE
  5
CC
330
1F
100
AcDbEntity
  8
0
  6
Continuous
 62
     7
370
    25
100
AcDbLine
 10
117.0224741662
 20
936.7282984181
 30
0.0
 11
117.0224741662
 21
936.8872405375
 31
0.0
  0
LINE
  5
CD
330
1F
100
AcDbEntity
  8
0
  6
Continuous
 62
     7
370
    25
100
AcDbLine
 10
117.0224741662
 20
935.4582984181
 30
0.0
 11
117.0224741662
 21
935.6172405375
 31
0.0
  0
LINE
  5
CE
330
1F
100
AcDbEntity
  8
0
  6
Continuous
 62
     7
370
    25
100
AcDbLine
 10
117.0224741662
 20
934.1882984181
 30
0.0
 11
117.0224741662
 21
934.3472405375
 31
0.0
  0
LINE
  5
CF
330
1F
100
AcDbEntity
  8
0
  6
Continuous
 62
     7
370
    25
100
AcDbLine
 10
117.0224741662
 20
932.9182984181
 30
0.0
 11
117.0224741662
 21
933.0772405375
 31
0.0
  0
LINE
  5
D0
330
1F
100
AcDbEntity
  8
0
  6
Continuous
 62
     7
370
    25
100
AcDbLine
 10
117.0224741662
 20
931.6482984181
 30
0.0
 11
117.0224741662
 21
931.8072405375
 31
0.0
  0
LINE
  5
D1
330
1F
100
AcDbEntity
  8
0
  6
Continuous
 62
     7
370
    25
100
AcDbLine
 10
117.0224741662
 20
87.4145915985
 30
0.0
 11
117.0224741662
 21
930.5372405375
 31
0.0
  0
LINE
  5
D2
330
1F
100
AcDbEntity
  8
0
  6
Continuous
 62
     7
370
    25
100
AcDbLine
 10
95.7224741662
 20
931.1722159535
 30
0.0
 11
95.7224741662
 21
88.0493787156
 31
0.0
  0
LINE
  5
D3
330
1F
100
AcDbEntity
  8
0
  6
Continuous
 62
     7
370
    25
100
AcDbLine
 10
95.7224741662
 20
932.4422159535
 30
0.0
 11
95.7224741662
 21
932.2835452402
 31
0.0
  0
LINE
  5
D4
330
1F
100
AcDbEntity
  8
0
  6
Continuous
 62
     7
370
    25
100
AcDbLine
 10
95.7224741662
 20
933.7122159535
 30
0.0
 11
95.7224741662
 21
933.5535452402
 31
0.0
  0
LINE
  5
D5
330
1F
100
AcDbEntity
  8
0
  6
Continuous
 62
     7
370
    25
100
AcDbLine
 10
95.7224741662
 20
934.9822159535
 30
0.0
 11
95.7224741662
 21
934.8235452402
 31
0.0
  0
LINE
  5
D6
330
1F
100
AcDbEntity
  8
0
  6
Continuous
 62
     7
370
    25
100
AcDbLine
 10
95.7224741662
 20
936.2522159535
 30
0.0
 11
95.7224741662
 21
936.0935452402
 31
0.0
  0
LINE
  5
D7
330
1F
100
AcDbEntity
  8
0
  6
Continuous
 62
     7
370
    25
100
AcDbLine
 10
95.7224741662
 20
937.5222159535
 30
0.0
 11
95.7224741662
 21
937.3635452402
 31
0.0
  0
LINE
  5
D8
330
1F
100
AcDbEntity
  8
0
  6
Continuous
 62
     7
370
    25
100
AcDbLine
 10
95.7224741662
 20
938.7922159535
 30
0.0
 11
95.7224741662
 21
938.6335452402
 31
0.0
  0
LINE
  5
D9
330
1F
100
AcDbEntity
  8
0
  6
Continuous
 62
     7
370
    25
100
AcDbLine
 10
95.7224741662
 20
940.0622159535
 30
0.0
 11
95.7224741662
 21
939.9035452402
 31
0.0
  0
LINE
  5
DA
330
1F
100
AcDbEntity
  8
0
  6
Continuous
 62
     7
370
    25
100
AcDbLine
 10
95.7224741662
 20
941.3322159535
 30
0.0
 11
95.7224741662
 21
941.1735452402
 31
0.0
  0
LINE
  5
DB
330
1F
100
AcDbEntity
  8
0
  6
Continuous
 62
     7
370
    25
100
AcDbLine
 10
95.7224741662
 20
942.6022159535
 30
0.0
 11
95.7224741662
 21
942.4435452402
 31
0.0
  0
LINE
  5
DC
330
1F
100
AcDbEntity
  8
0
  6
Continuous
 62
     7
370
    25
100
AcDbLine
 10
95.7224741662
 20
943.8722159535
 30
0.0
 11
95.7224741662
 21
943.7135452402
 31
0.0
  0
LINE
  5
DD
330
1F
100
AcDbEntity
  8
0
  6
Continuous
 62
     7
370
    25
100
AcDbLine
 10
95.7224741662
 20
945.1422159535
 30
0.0
 11
95.7224741662
 21
944.9835452402
 31
0.0
  0
LINE
  5
DE
330
1F
100
AcDbEntity
  8
0
  6
Continuous
 62
     7
370
    25
100
AcDbLine
 10
95.7224741662
 20
946.4122159535
 30
0.0
 11
95.7224741662
 21
946.2535452402
 31
0.0
  0
LINE
  5
DF
330
1F
100
AcDbEntity
  8
0
  6
Continuous
 62
     7
370
    25
100
AcDbLine
 10
95.7224741662
 20
947.6822159535
 30
0.0
 11
95.7224741662
 21
947.5235452402
 31
0.0
  0
LINE
  5
E0
330
1F
100
AcDbEntity
  8
0
  6
Continuous
 62
     7
370
    25
100
AcDbLine
 10
95.7224741662
 20
948.9522159535
 30
0.0
 11
95.7224741662
 21
948.7935452402
 31
0.0
  0
LINE
  5
E1
330
1F
100
AcDbEntity
  8
0
  6
Continuous
 62
     7
370
    25
100
AcDbLine
 10
95.7224741662
 20
950.2222159535
 30
0.0
 11
95.7224741662
 21
950.0635452402
 31
0.0
  0
LINE
  5
E2
330
1F
100
AcDbEntity
  8
0
  6
Continuous
 62
     7
370
    25
100
AcDbLine
 10
95.7224741662
 20
951.4922159535
 30
0.0
 11
95.7224741662
 21
951.3335452402
 31
0.0
  0
LINE
  5
E3
330
1F
100
AcDbEntity
  8
0
  6
Continuous
 62
     7
370
    25
100
AcDbLine
 10
95.7224741662
 20
952.7622159535
 30
0.0
 11
95.7224741662
 21
952.6035452402
 31
0.0
  0
LWPOLYLINE
  5
E4
330
1F
100
AcDbEntity
  8
0
  6
Continuous
 62
     7
370
    25
100
AcDbPolyline
 90
        3
 70
   128
 43
0.0
 10
96.4098852252
 20
87.6525583084
 10
96.4099589067
 20
87.4947210142
 10
96.4098867912
 20
87.3384517116
  0
LWPOLYLINE
  5
E5
330
1F
100
AcDbEntity
  8
0
  6
Continuous
 62
     7
370
    25
100
AcDbPolyline
 90
        3
 70
   128
 43
0.0
 10
96.4098818326
 20
952.2064604243
 10
96.4098823749
 20
952.0476530746
 10
96.4098818429
 20
951.8919575789
  0
LWPOLYLINE
  5
E6
330
1F
100
AcDbEntity
  8
0
  6
Continuous
 62
     7
370
    25
100
AcDbPolyline
 90
        3
 70
   128
 43
0.0
 10
96.4098818326
 20
950.9364604243
 10
96.4098838094
 20
950.7775957143
 10
96.40988187
 20
950.6219574455
  0
LWPOLYLINE
  5
E7
330
1F
100
AcDbEntity
  8
0
  6
Continuous
 62
     7
370
    25
100
AcDbPolyline
 90
        3
 70
   128
 43
0.0
 10
96.4098818326
 20
949.6664604243
 10
96.4098861363
 20
949.5075383436
 10
96.409881914
 20
949.3519573174
  0
LWPOLYLINE
  5
E8
330
1F
100
AcDbEntity
  8
0
  6
Continuous
 62
     7
370
    25
100
AcDbPolyline
 90
        3
 70
   128
 43
0.0
 10
96.4098818326
 20
948.3964604243
 10
96.4098893559
 20
948.2374809623
 10
96.4098819749
 20
948.0819571945
  0
LWPOLYLINE
  5
E9
330
1F
100
AcDbEntity
  8
0
  6
Continuous
 62
     7
370
    25
100
AcDbPolyline
 90
        3
 70
   128
 43
0.0
 10
96.4098818326
 20
947.1264604243
 10
96.4098934682
 20
946.9674235706
 10
96.4098820527
 20
946.8119570769
  0
LWPOLYLINE
  5
EA
330
1F
100
AcDbEntity
  8
0
  6
Continuous
 62
     7
370
    25
100
AcDbPolyline
 90
        3
 70
   128
 43
0.0
 10
96.4098818326
 20
945.8564604243
 10
96.4098984735
 20
945.6973661684
 10
96.4098821474
 20
945.5419569645
  0
LWPOLYLINE
  5
EB
330
1F
100
AcDbEntity
  8
0
  6
Continuous
 62
     7
370
    25
100
AcDbPolyline
 90
        3
 70
   128
 43
0.0
 10
96.4098818326
 20
944.5864604243
 10
96.4099043718
 20
944.4273087556
 10
96.4098822592
 20
944.2719568574
  0
LWPOLYLINE
  5
EC
330
1F
100
AcDbEntity
  8
0
  6
Continuous
 62
     7
370
    25
100
AcDbPolyline
 90
        3
 70
   128
 43
0.0
 10
96.4098818326
 20
943.3164604243
 10
96.4099111634
 20
943.1572513324
 10
96.4098823879
 20
943.0019567556
  0
LWPOLYLINE
  5
ED
330
1F
100
AcDbEntity
  8
0
  6
Continuous
 62
     7
370
    25
100
AcDbPolyline
 90
        3
 70
   128
 43
0.0
 10
96.4098818326
 20
942.0464604243
 10
96.4099188484
 20
941.8871938988
 10
96.4098825336
 20
941.7319566592
  0
LWPOLYLINE
  5
EE
330
1F
100
AcDbEntity
  8
0
  6
Continuous
 62
     7
370
    25
100
AcDbPolyline
 90
        3
 70
   128
 43
0.0
 10
96.4098818326
 20
940.7764604243
 10
96.4099274269
 20
940.6171364546
 10
96.4098826963
 20
940.461956568
  0
LWPOLYLINE
  5
EF
330
1F
100
AcDbEntity
  8
0
  6
Continuous
 62
     7
370
    25
100
AcDbPolyline
 90
        3
 70
   128
 43
0.0
 10
96.4098818326
 20
939.5064604243
 10
96.4099368992
 20
939.347079
 10
96.4098828761
 20
939.1919564822
  0
LWPOLYLINE
  5
F0
330
1F
100
AcDbEntity
  8
0
  6
Continuous
 62
     7
370
    25
100
AcDbPolyline
 90
        3
 70
   128
 43
0.0
 10
96.4098818326
 20
938.2364604243
 10
96.4099472653
 20
938.077021535
 10
96.4098830729
 20
937.9219564018
  0
LWPOLYLINE
  5
F1
330
1F
100
AcDbEntity
  8
0
  6
Continuous
 62
     7
370
    25
100
AcDbPolyline
 90
        3
 70
   128
 43
0.0
 10
96.4098818326
 20
936.9664604243
 10
96.4099585254
 20
936.8069640595
 10
96.4098832868
 20
936.6519563267
  0
LWPOLYLINE
  5
F2
330
1F
100
AcDbEntity
  8
0
  6
Continuous
 62
     7
370
    25
100
AcDbPolyline
 90
        3
 70
   128
 43
0.0
 10
96.4098818326
 20
935.6964604243
 10
96.4099706797
 20
935.5369065736
 10
96.4098835178
 20
935.3819562571
  0
LWPOLYLINE
  5
F3
330
1F
100
AcDbEntity
  8
0
  6
Continuous
 62
     7
370
    25
100
AcDbPolyline
 90
        3
 70
   128
 43
0.0
 10
96.4098818326
 20
934.4264604243
 10
96.4099837284
 20
934.2668490772
 10
96.409883766
 20
934.1119561929
  0
LWPOLYLINE
  5
F4
330
1F
100
AcDbEntity
  8
0
  6
Continuous
 62
     7
370
    25
100
AcDbPolyline
 90
        3
 70
   128
 43
0.0
 10
96.4098818326
 20
933.1564604243
 10
96.4099976715
 20
932.9967915704
 10
96.4098840313
 20
932.8419561341
  0
LWPOLYLINE
  5
F5
330
1F
100
AcDbEntity
  8
0
  6
Continuous
 62
     7
370
    25
100
AcDbPolyline
 90
        3
 70
   128
 43
0.0
 10
96.4098818326
 20
931.8864604243
 10
96.4100125093
 20
931.7267340532
 10
96.4098843138
 20
931.5719560808
  0
LWPOLYLINE
  5
F6
330
1F
100
AcDbEntity
  8
0
  6
Continuous
 62
     7
370
    25
100
AcDbPolyline
 90
        3
 70
   128
 43
0.0
 10
116.3350665003
 20
951.2539607088
 10
116.3350659625
 20
951.4126533592
 10
116.3350664901
 20
951.568453061
  0
LWPOLYLINE
  5
F7
330
1F
100
AcDbEntity
  8
0
  6
Continuous
 62
     7
370
    25
100
AcDbPolyline
 90
        3
 70
   128
 43
0.0
 10
116.3350665003
 20
949.9839607088
 10
116.3350645324
 20
950.142595999
 10
116.335066463
 20
950.298452912
  0
LWPOLYLINE
  5
F8
330
1F
100
AcDbEntity
  8
0
  6
Continuous
 62
     7
370
    25
100
AcDbPolyline
 90
        3
 70
   128
 43
0.0
 10
116.3350665003
 20
948.7139607088
 10
116.3350622098
 20
948.8725386283
 10
116.335066419
 20
949.0284527579
  0
LWPOLYLINE
  5
F9
330
1F
100
AcDbEntity
  8
0
  6
Continuous
 62
     7
370
    25
100
AcDbPolyline
 90
        3
 70
   128
 43
0.0
 10
116.3350665003
 20
947.4439607088
 10
116.3350589947
 20
947.6024812471
 10
116.3350663582
 20
947.7584525988
  0
LWPOLYLINE
  5
FA
330
1F
100
AcDbEntity
  8
0
  6
Continuous
 62
     7
370
    25
100
AcDbPolyline
 90
        3
 70
   128
 43
0.0
 10
116.3350665003
 20
946.1739607088
 10
116.3350548868
 20
946.3324238554
 10
116.3350662806
 20
946.4884524347
  0
LWPOLYLINE
  5
FB
330
1F
100
AcDbEntity
  8
0
  6
Continuous
 62
     7
370
    25
100
AcDbPolyline
 90
        3
 70
   128
 43
0.0
 10
116.3350665003
 20
944.9039607088
 10
116.335049886
 20
945.0623664532
 10
116.3350661861
 20
945.2184522657
  0
LWPOLYLINE
  5
FC
330
1F
100
AcDbEntity
  8
0
  6
Continuous
 62
     7
370
    25
100
AcDbPolyline
 90
        3
 70
   128
 43
0.0
 10
116.3350665003
 20
943.6339607088
 10
116.3350439921
 20
943.7923090405
 10
116.3350660748
 20
943.9484520916
  0
LWPOLYLINE
  5
FD
330
1F
100
AcDbEntity
  8
0
  6
Continuous
 62
     7
370
    25
100
AcDbPolyline
 90
        3
 70
   128
 43
0.0
 10
116.3350665003
 20
942.3639607088
 10
116.3350372049
 20
942.5222516174
 10
116.3350659466
 20
942.6784519126
  0
LWPOLYLINE
  5
FE
330
1F
100
AcDbEntity
  8
0
  6
Continuous
 62
     7
370
    25
100
AcDbPolyline
 90
        3
 70
   128
 43
0.0
 10
116.3350665003
 20
941.0939607088
 10
116.3350295244
 20
941.2521941837
 10
116.3350658017
 20
941.4084517287
  0
LWPOLYLINE
  5
FF
330
1F
100
AcDbEntity
  8
0
  6
Continuous
 62
     7
370
    25
100
AcDbPolyline
 90
        3
 70
   128
 43
0.0
 10
116.3350665003
 20
939.8239607088
 10
116.3350209503
 20
939.9821367397
 10
116.3350656399
 20
940.1384515398
  0
LWPOLYLINE
  5
100
330
1F
100
AcDbEntity
  8
0
  6
Continuous
 62
     7
370
    25
100
AcDbPolyline
 90
        3
 70
   128
 43
0.0
 10
116.3350665003
 20
938.5539607088
 10
116.3350114825
 20
938.7120792851
 10
116.3350654614
 20
938.868451346
  0
LWPOLYLINE
  5
101
330
1F
100
AcDbEntity
  8
0
  6
Continuous
 62
     7
370
    25
100
AcDbPolyline
 90
        3
 70
   128
 43
0.0
 10
116.3350665003
 20
937.2839607088
 10
116.3350011208
 20
937.4420218201
 10
116.3350652662
 20
937.5984511472
  0
LWPOLYLINE
  5
102
330
1F
100
AcDbEntity
  8
0
  6
Continuous
 62
     7
370
    25
100
AcDbPolyline
 90
        3
 70
   128
 43
0.0
 10
116.3350665003
 20
936.0139607088
 10
116.3349898651
 20
936.1719643447
 10
116.3350650541
 20
936.3284509436
  0
LWPOLYLINE
  5
103
330
1F
100
AcDbEntity
  8
0
  6
Continuous
 62
     7
370
    25
100
AcDbPolyline
 90
        3
 70
   128
 43
0.0
 10
116.3350665003
 20
934.7439607088
 10
116.3349777152
 20
934.9019068588
 10
116.3350648253
 20
935.058450735
  0
LWPOLYLINE
  5
104
330
1F
100
AcDbEntity
  8
0
  6
Continuous
 62
     7
370
    25
100
AcDbPolyline
 90
        3
 70
   128
 43
0.0
 10
116.3350665003
 20
933.4739607088
 10
116.334964671
 20
933.6318493625
 10
116.3350645798
 20
933.7884505216
  0
LWPOLYLINE
  5
105
330
1F
100
AcDbEntity
  8
0
  6
Continuous
 62
     7
370
    25
100
AcDbPolyline
 90
        3
 70
   128
 43
0.0
 10
116.3350665003
 20
932.2039607088
 10
116.3349507323
 20
932.3617918557
 10
116.3350643176
 20
932.5184503032
  0
LWPOLYLINE
  5
106
330
1F
100
AcDbEntity
  8
0
  6
Continuous
 62
     7
370
    25
100
AcDbPolyline
 90
        3
 70
   128
 43
0.0
 10
116.3350665003
 20
930.9339607088
 10
116.3349358989
 20
931.0917343386
 10
116.3350640386
 20
931.24845008
  0
LINE
  5
107
330
1F
100
AcDbEntity
  8
0
  6
Continuous
 62
     7
370
    25
100
AcDbLine
 10
116.3350665003
 20
952.5239607088
 30
0.0
 11
116.3350665003
 21
952.838453205
 31
0.0
  0
LINE
  5
108
330
1F
100
AcDbEntity
  8
0
  6
Continuous
 62
     7
370
    25
100
AcDbLine
 10
90.6552072292
 20
64.143341602
 30
0.0
 11
90.335066505
 21
63.588841602
 31
0.0
  0
LINE
  5
109
330
1F
100
AcDbEntity
  8
0
  6
Continuous
 62
     7
370
    25
100
AcDbLine
 10
90.335066505
 20
58.697841602
 30
0.0
 11
90.6552072292
 21
58.143341602
 31
0.0
  0
LINE
  5
10A
330
1F
100
AcDbEntity
  8
0
  6
Continuous
 62
     7
370
    25
100
AcDbLine
 10
90.6552072292
 20
58.143341602
 30
0.0
 11
91.3724741662
 21
58.143341602
 31
0.0
  0
LINE
  5
10B
330
1F
100
AcDbEntity
  8
0
  6
Continuous
 62
     7
370
    25
100
AcDbLine
 10
91.3724741662
 20
64.143341602
 30
0.0
 11
90.6552072292
 21
64.143341602
 31
0.0
  0
LINE
  5
10C
330
1F
100
AcDbEntity
  8
0
  6
Continuous
 62
     7
370
    25
100
AcDbLine
 10
121.3724741662
 20
86.143341602
 30
0.0
 11
120.3724741662
 21
87.143341602
 31
0.0
  0
LINE
  5
10D
330
1F
100
AcDbEntity
  8
0
  6
Continuous
 62
     7
370
    25
100
AcDbLine
 10
92.3724741662
 20
87.143341602
 30
0.0
 11
91.3724741662
 21
86.143341602
 31
0.0
  0
LINE
  5
10E
330
1F
100
AcDbEntity
  8
0
  6
Continuous
 62
     7
370
    25
100
AcDbLine
 10
91.3724741662
 20
58.143341602
 30
0.0
 11
91.3724741662
 21
54.143341602
 31
0.0
  0
LINE
  5
10F
330
1F
100
AcDbEntity
  8
0
  6
Continuous
 62
     7
370
    25
100
AcDbLine
 10
91.3724741662
 20
86.143341602
 30
0.0
 11
91.3724741662
 21
64.143341602
 31
0.0
  0
LINE
  5
110
330
1F
100
AcDbEntity
  8
0
  6
Continuous
 62
     7
370
    25
100
AcDbLine
 10
121.3724741662
 20
54.143341602
 30
0.0
 11
121.3724741662
 21
86.143341602
 31
0.0
  0
LINE
  5
111
330
1F
100
AcDbEntity
  8
0
  6
Continuous
 62
     7
370
    25
100
AcDbLine
 10
91.3724741662
 20
54.143341602
 30
0.0
 11
92.3724741662
 21
53.143341602
 31
0.0
  0
LINE
  5
112
330
1F
100
AcDbEntity
  8
0
  6
Continuous
 62
     7
370
    25
100
AcDbLine
 10
120.3724741662
 20
53.143341602
 30
0.0
 11
121.3724741662
 21
54.143341602
 31
0.0
  0
LWPOLYLINE
  5
113
330
1F
100
AcDbEntity
  8
0
  6
Continuous
 62
     7
370
    25
100
AcDbPolyline
 90
       12
 70
   128
 43
0.0
 10
116.2672336322
 20
952.8364858008
 10
116.0010430465
 20
952.7896007451
 10
114.8320020537
 20
952.7282760479
 10
112.9701769476
 20
952.6707724156
 10
110.5212726226
 20
952.6109778852
 10
107.6999227563
 20
952.5502075343
 10
104.8243783493
 20
952.4932251693
 10
102.0190059198
 20
952.4322491021
 10
99.6116359982
 20
952.3728483497
 10
97.7962041474
 20
952.3150244493
 10
96.6885288174
 20
952.2536913051
 10
96.4724785749
 20
952.2066025235
  0
LWPOLYLINE
  5
114
330
1F
100
AcDbEntity
  8
0
  6
Continuous
 62
     7
370
    25
100
AcDbPolyline
 90
       12
 70
   128
 43
0.0
 10
116.2671819982
 20
951.5664767063
 10
116.0010430465
 20
951.5196007451
 10
114.8320020537
 20
951.4582760479
 10
112.9701769476
 20
951.4007724156
 10
110.5212726226
 20
951.3409778852
 10
107.6999227563
 20
951.2802075343
 10
104.8243783493
 20
951.2232251693
 10
102.0190059198
 20
951.1622491021
 10
99.6116359982
 20
951.1028483497
 10
97.7962041474
 20
951.0450244493
 10
96.6885288174
 20
950.9836913051
 10
96.472759527
 20
950.9366637578
  0
LWPOLYLINE
  5
115
330
1F
100
AcDbEntity
  8
0
  6
Continuous
 62
     7
370
    25
100
AcDbPolyline
 90
       12
 70
   128
 43
0.0
 10
116.2671304318
 20
950.2964676238
 10
116.0010430465
 20
950.2496007451
 10
114.8320020537
 20
950.1882760479
 10
112.9701769476
 20
950.1307724156
 10
110.5212726226
 20
950.0709778852
 10
107.6999227563
 20
950.0102075343
 10
104.8243783493
 20
949.9532251693
 10
102.0190059198
 20
949.8922491021
 10
99.6116359982
 20
949.8328483497
 10
97.7962041474
 20
949.7750244493
 10
96.6885288174
 20
949.7136913051
 10
96.4727587383
 20
949.6666635859
  0
LWPOLYLINE
  5
116
330
1F
100
AcDbEntity
  8
0
  6
Continuous
 62
     7
370
    25
100
AcDbPolyline
 90
       12
 70
   128
 43
0.0
 10
116.2670789325
 20
949.026458553
 10
116.0010430465
 20
948.9796007451
 10
114.8320020537
 20
948.9182760479
 10
112.9701769476
 20
948.8607724156
 10
110.5212726226
 20
948.8009778852
 10
107.6999227563
 20
948.7402075343
 10
104.8243783493
 20
948.6832251693
 10
102.0190059198
 20
948.6222491021
 10
99.6116359982
 20
948.5628483497
 10
97.7962041474
 20
948.5050244493
 10
96.6885288174
 20
948.4436913051
 10
96.4727575711
 20
948.3966633315
  0
LWPOLYLINE
  5
117
330
1F
100
AcDbEntity
  8
0
  6
Continuous
 62
     7
370
    25
100
AcDbPolyline
 90
       12
 70
   128
 43
0.0
 10
116.2670274998
 20
947.756449494
 10
116.0010430465
 20
947.7096007451
 10
114.8320020537
 20
947.6482760479
 10
112.9701769476
 20
947.5907724156
 10
110.5212726226
 20
947.5309778852
 10
107.6999227563
 20
947.4702075343
 10
104.8243783493
 20
947.4132251693
 10
102.0190059198
 20
947.3522491021
 10
99.6116359982
 20
947.2928483497
 10
97.7962041474
 20
947.2350244493
 10
96.6885288174
 20
947.1736913051
 10
96.4727560233
 20
947.1266629942
  0
LWPOLYLINE
  5
118
330
1F
100
AcDbEntity
  8
0
  6
Continuous
 62
     7
370
    25
100
AcDbPolyline
 90
       12
 70
   128
 43
0.0
 10
116.2669761332
 20
946.4864404466
 10
116.0010430465
 20
946.4396007451
 10
114.8320020537
 20
946.3782760479
 10
112.9701769476
 20
946.3207724156
 10
110.5212726226
 20
946.2609778852
 10
107.6999227563
 20
946.2002075343
 10
104.8243783493
 20
946.1432251693
 10
102.0190059198
 20
946.0822491021
 10
99.6116359982
 20
946.0228483497
 10
97.7962041474
 20
945.9650244493
 10
96.6885288174
 20
945.9036913051
 10
96.4727540933
 20
945.8566625735
  0
LWPOLYLINE
  5
119
330
1F
100
AcDbEntity
  8
0
  6
Continuous
 62
     7
370
    25
100
AcDbPolyline
 90
       12
 70
   128
 43
0.0
 10
116.2669248323
 20
945.2164314108
 10
116.0010430465
 20
945.1696007451
 10
114.8320020537
 20
945.1082760479
 10
112.9701769476
 20
945.0507724156
 10
110.5212726226
 20
944.9909778852
 10
107.6999227563
 20
944.9302075343
 10
104.8243783493
 20
944.8732251693
 10
102.0190059198
 20
944.8122491021
 10
99.6116359982
 20
944.7528483497
 10
97.7962041474
 20
944.6950244493
 10
96.6885288174
 20
944.6336913051
 10
96.4727517791
 20
944.5866620692
  0
LWPOLYLINE
  5
11A
330
1F
100
AcDbEntity
  8
0
  6
Continuous
 62
     7
370
    25
100
AcDbPolyline
 90
       12
 70
   128
 43
0.0
 10
116.2668735967
 20
943.9464223865
 10
116.0010430465
 20
943.8996007451
 10
114.8320020537
 20
943.8382760479
 10
112.9701769476
 20
943.7807724156
 10
110.5212726226
 20
943.7209778852
 10
107.6999227563
 20
943.6602075343
 10
104.8243783493
 20
943.6032251693
 10
102.0190059198
 20
943.5422491021
 10
99.6116359982
 20
943.4828483497
 10
97.7962041474
 20
943.4250244493
 10
96.6885288174
 20
943.3636913051
 10
96.4727490791
 20
943.3166614807
  0
LWPOLYLINE
  5
11B
330
1F
100
AcDbEntity
  8
0
  6
Continuous
 62
     7
370
    25
100
AcDbPolyline
 90
       12
 70
   128
 43
0.0
 10
116.2668224259
 20
942.6764133736
 10
116.0010430465
 20
942.6296007451
 10
114.8320020537
 20
942.5682760479
 10
112.9701769476
 20
942.5107724156
 10
110.5212726226
 20
942.4509778852
 10
107.6999227563
 20
942.3902075343
 10
104.8243783493
 20
942.3332251693
 10
102.0190059198
 20
942.2722491021
 10
99.6116359982
 20
942.2128483497
 10
97.7962041474
 20
942.1550244493
 10
96.6885288174
 20
942.0936913051
 10
96.4727459913
 20
942.0466608077
  0
LWPOLYLINE
  5
11C
330
1F
100
AcDbEntity
  8
0
  6
Continuous
 62
     7
370
    25
100
AcDbPolyline
 90
       12
 70
   128
 43
0.0
 10
116.2667713194
 20
941.4064043721
 10
116.0010430465
 20
941.3596007451
 10
114.8320020537
 20
941.2982760479
 10
112.9701769476
 20
941.2407724156
 10
110.5212726226
 20
941.1809778852
 10
107.6999227563
 20
941.1202075343
 10
104.8243783493
 20
941.0632251693
 10
102.0190059198
 20
941.0022491021
 10
99.6116359982
 20
940.9428483497
 10
97.7962041474
 20
940.8850244493
 10
96.6885288174
 20
940.8236913051
 10
96.472742514
 20
940.7766600498
  0
LWPOLYLINE
  5
11D
330
1F
100
AcDbEntity
  8
0
  6
Continuous
 62
     7
370
    25
100
AcDbPolyline
 90
       12
 70
   128
 43
0.0
 10
116.2667202768
 20
940.1363953818
 10
116.0010430465
 20
940.0896007451
 10
114.8320020537
 20
940.0282760479
 10
112.9701769476
 20
939.9707724156
 10
110.5212726226
 20
939.9109778852
 10
107.6999227563
 20
939.8502075343
 10
104.8243783493
 20
939.7932251693
 10
102.0190059198
 20
939.7322491021
 10
99.6116359982
 20
939.6728483497
 10
97.7962041474
 20
939.6150244493
 10
96.6885288174
 20
939.5536913051
 10
96.4727386454
 20
939.5066592066
  0
LWPOLYLINE
  5
11E
330
1F
100
AcDbEntity
  8
0
  6
Continuous
 62
     7
370
    25
100
AcDbPolyline
 90
       12
 70
   128
 43
0.0
 10
116.2666692977
 20
938.8663864026
 10
116.0010430465
 20
938.8196007451
 10
114.8320020537
 20
938.7582760479
 10
112.9701769476
 20
938.7007724156
 10
110.5212726226
 20
938.6409778852
 10
107.6999227563
 20
938.5802075343
 10
104.8243783493
 20
938.5232251693
 10
102.0190059198
 20
938.4622491021
 10
99.6116359982
 20
938.4028483497
 10
97.7962041474
 20
938.3450244493
 10
96.6885288174
 20
938.2836913051
 10
96.4727343839
 20
938.2366582778
  0
LWPOLYLINE
  5
11F
330
1F
100
AcDbEntity
  8
0
  6
Continuous
 62
     7
370
    25
100
AcDbPolyline
 90
       12
 70
   128
 43
0.0
 10
116.2666183815
 20
937.5963774346
 10
116.0010430465
 20
937.5496007451
 10
114.8320020537
 20
937.4882760479
 10
112.9701769476
 20
937.4307724156
 10
110.5212726226
 20
937.3709778852
 10
107.6999227563
 20
937.3102075343
 10
104.8243783493
 20
937.2532251693
 10
102.0190059198
 20
937.1922491021
 10
99.6116359982
 20
937.1328483497
 10
97.7962041474
 20
937.0750244493
 10
96.6885288174
 20
937.0136913051
 10
96.4727297276
 20
936.966657263
  0
LWPOLYLINE
  5
120
330
1F
100
AcDbEntity
  8
0
  6
Continuous
 62
     7
370
    25
100
AcDbPolyline
 90
       12
 70
   128
 43
0.0
 10
116.2665675279
 20
936.3263684776
 10
116.0010430465
 20
936.2796007451
 10
114.8320020537
 20
936.2182760479
 10
112.9701769476
 20
936.1607724156
 10
110.5212726226
 20
936.1009778852
 10
107.6999227563
 20
936.0402075343
 10
104.8243783493
 20
935.9832251693
 10
102.0190059198
 20
935.9222491021
 10
99.6116359982
 20
935.8628483497
 10
97.7962041474
 20
935.8050244493
 10
96.6885288174
 20
935.7436913051
 10
96.4727246749
 20
935.6966561617
  0
LWPOLYLINE
  5
121
330
1F
100
AcDbEntity
  8
0
  6
Continuous
 62
     7
370
    25
100
AcDbPolyline
 90
       12
 70
   128
 43
0.0
 10
116.2665167365
 20
935.0563595315
 10
116.0010430465
 20
935.0096007451
 10
114.8320020537
 20
934.9482760479
 10
112.9701769476
 20
934.8907724156
 10
110.5212726226
 20
934.8309778852
 10
107.6999227563
 20
934.7702075343
 10
104.8243783493
 20
934.7132251693
 10
102.0190059198
 20
934.6522491021
 10
99.6116359982
 20
934.5928483497
 10
97.7962041474
 20
934.5350244493
 10
96.6885288174
 20
934.4736913051
 10
96.4727192241
 20
934.4266549737
  0
LWPOLYLINE
  5
122
330
1F
100
AcDbEntity
  8
0
  6
Continuous
 62
     7
370
    25
100
AcDbPolyline
 90
       12
 70
   128
 43
0.0
 10
116.2664628797
 20
933.7863500455
 10
116.0010430465
 20
933.7396007451
 10
114.8320020537
 20
933.6782760479
 10
112.9701769476
 20
933.6207724156
 10
110.5212726226
 20
933.5609778852
 10
107.6999227563
 20
933.5002075343
 10
104.8243783493
 20
933.4432251693
 10
102.0190059198
 20
933.3822491021
 10
99.6116359982
 20
933.3228483497
 10
97.7962041474
 20
933.2650244493
 10
96.6885288174
 20
933.2036913051
 10
96.4727133734
 20
933.1566536985
  0
LWPOLYLINE
  5
123
330
1F
100
AcDbEntity
  8
0
  6
Continuous
 62
     7
370
    25
100
AcDbPolyline
 90
       12
 70
   128
 43
0.0
 10
116.2664153381
 20
932.5163416719
 10
116.0010430465
 20
932.4696007451
 10
114.8320020537
 20
932.4082760479
 10
112.9701769476
 20
932.3507724156
 10
110.5212726226
 20
932.2909778852
 10
107.6999227563
 20
932.2302075343
 10
104.8243783493
 20
932.1732251693
 10
102.0190059198
 20
932.1122491021
 10
99.6116359982
 20
932.0528483497
 10
97.7962041474
 20
931.9950244493
 10
96.6885288174
 20
931.9336913051
 10
96.4727071214
 20
931.8866523359
  0
LWPOLYLINE
  5
124
330
1F
100
AcDbEntity
  8
0
  6
Continuous
 62
     7
370
    25
100
AcDbPolyline
 90
       10
 70
   128
 43
0.0
 10
116.2663647304
 20
931.2463327582
 10
116.0010430465
 20
931.1996007451
 10
114.8320020537
 20
931.1382760479
 10
112.9701769476
 20
931.0807724156
 10
110.5212726226
 20
931.0209778852
 10
107.6999227563
 20
930.9602075343
 10
104.8243783493
 20
930.9032251693
 10
102.0190059198
 20
930.8422491021
 10
99.6116359982
 20
930.7828483497
 10
98.4003564804
 20
930.7472498059
  0
LINE
  5
125
330
1F
100
AcDbEntity
  8
0
  6
Continuous
 62
     7
370
    25
100
AcDbLine
 10
97.8502893229
 20
931.1441248039
 30
0.0
 11
98.4003564733
 21
930.7472498056
 31
0.0
  0
LWPOLYLINE
  5
126
330
1F
100
AcDbEntity
  8
0
  6
Continuous
 62
     7
370
    25
100
AcDbPolyline
 90
       10
 70
   128
 43
0.0
 10
115.8721657627
 20
953.1431417151
 10
113.7581807833
 20
953.075922794
 10
110.8075350468
 20
953.0078528834
 10
107.7915152142
 20
952.9470825325
 10
104.7175614787
 20
952.8901001676
 10
101.7186215083
 20
952.8291241003
 10
99.1451457711
 20
952.7697233479
 10
97.2044511656
 20
952.7118994476
 10
96.0203474846
 20
952.6505663033
 10
95.7897221592
 20
952.6035452402
  0
LWPOLYLINE
  5
127
330
1F
100
AcDbEntity
  8
0
  6
Continuous
 62
     7
370
    25
100
AcDbPolyline
 90
       12
 70
   128
 43
0.0
 10
116.9002355662
 20
951.9637548876
 10
116.8831590494
 20
951.9364093038
 10
115.8721657627
 20
951.8731417151
 10
113.7581807833
 20
951.805922794
 10
110.8075350468
 20
951.7378528834
 10
107.7915152142
 20
951.6770825325
 10
104.7175614787
 20
951.6201001676
 10
101.7186215083
 20
951.5591241003
 10
99.1451457711
 20
951.4997233479
 10
97.2044511656
 20
951.4418994476
 10
96.0203474846
 20
951.3805663033
 10
95.7897221592
 20
951.3335452402
  0
LWPOLYLINE
  5
128
330
1F
100
AcDbEntity
  8
0
  6
Continuous
 62
     7
370
    25
100
AcDbPolyline
 90
       12
 70
   128
 43
0.0
 10
116.900226205
 20
950.6937398969
 10
116.8831590494
 20
950.6664093038
 10
115.8721657627
 20
950.6031417151
 10
113.7581807833
 20
950.535922794
 10
110.8075350468
 20
950.4678528834
 10
107.7915152142
 20
950.4070825325
 10
104.7175614787
 20
950.3501001676
 10
101.7186215083
 20
950.2891241003
 10
99.1451457711
 20
950.2297233479
 10
97.2044511656
 20
950.1718994476
 10
96.0203474846
 20
950.1105663033
 10
95.7897221592
 20
950.0635452402
  0
LWPOLYLINE
  5
129
330
1F
100
AcDbEntity
  8
0
  6
Continuous
 62
     7
370
    25
100
AcDbPolyline
 90
       12
 70
   128
 43
0.0
 10
116.9002168445
 20
949.4237249074
 10
116.8831590494
 20
949.3964093038
 10
115.8721657627
 20
949.3331417151
 10
113.7581807833
 20
949.265922794
 10
110.8075350468
 20
949.1978528834
 10
107.7915152142
 20
949.1370825325
 10
104.7175614787
 20
949.0801001676
 10
101.7186215083
 20
949.0191241003
 10
99.1451457711
 20
948.9597233479
 10
97.2044511656
 20
948.9018994476
 10
96.0203474846
 20
948.8405663033
 10
95.7897221592
 20
948.7935452402
  0
LWPOLYLINE
  5
12A
330
1F
100
AcDbEntity
  8
0
  6
Continuous
 62
     7
370
    25
100
AcDbPolyline
 90
       12
 70
   128
 43
0.0
 10
116.9002074847
 20
948.1537099191
 10
116.8831590494
 20
948.1264093038
 10
115.8721657627
 20
948.0631417151
 10
113.7581807833
 20
947.995922794
 10
110.8075350468
 20
947.9278528834
 10
107.7915152142
 20
947.8670825325
 10
104.7175614787
 20
947.8101001676
 10
101.7186215083
 20
947.7491241003
 10
99.1451457711
 20
947.6897233479
 10
97.2044511656
 20
947.6318994476
 10
96.0203474846
 20
947.5705663033
 10
95.7897221592
 20
947.5235452402
  0
LWPOLYLINE
  5
12B
330
1F
100
AcDbEntity
  8
0
  6
Continuous
 62
     7
370
    25
100
AcDbPolyline
 90
       12
 70
   128
 43
0.0
 10
116.9001981258
 20
946.8836949321
 10
116.8831590494
 20
946.8564093038
 10
115.8721657627
 20
946.7931417151
 10
113.7581807833
 20
946.725922794
 10
110.8075350468
 20
946.6578528834
 10
107.7915152142
 20
946.5970825325
 10
104.7175614787
 20
946.5401001676
 10
101.7186215083
 20
946.4791241003
 10
99.1451457711
 20
946.4197233479
 10
97.2044511656
 20
946.3618994476
 10
96.0203474846
 20
946.3005663033
 10
95.7897221592
 20
946.2535452402
  0
LWPOLYLINE
  5
12C
330
1F
100
AcDbEntity
  8
0
  6
Continuous
 62
     7
370
    25
100
AcDbPolyline
 90
       12
 70
   128
 43
0.0
 10
116.9001887676
 20
945.6136799463
 10
116.8831590494
 20
945.5864093038
 10
115.8721657627
 20
945.5231417151
 10
113.7581807833
 20
945.455922794
 10
110.8075350468
 20
945.3878528834
 10
107.7915152142
 20
945.3270825325
 10
104.7175614787
 20
945.2701001676
 10
101.7186215083
 20
945.2091241003
 10
99.1451457711
 20
945.1497233479
 10
97.2044511656
 20
945.0918994476
 10
96.0203474846
 20
945.0305663033
 10
95.7897221592
 20
944.9835452402
  0
LWPOLYLINE
  5
12D
330
1F
100
AcDbEntity
  8
0
  6
Continuous
 62
     7
370
    25
100
AcDbPolyline
 90
       12
 70
   128
 43
0.0
 10
116.9001794103
 20
944.3436649619
 10
116.8831590494
 20
944.3164093038
 10
115.8721657627
 20
944.2531417151
 10
113.7581807833
 20
944.185922794
 10
110.8075350468
 20
944.1178528834
 10
107.7915152142
 20
944.0570825325
 10
104.7175614787
 20
944.0001001676
 10
101.7186215083
 20
943.9391241003
 10
99.1451457711
 20
943.8797233479
 10
97.2044511656
 20
943.8218994476
 10
96.0203474846
 20
943.7605663033
 10
95.7897221592
 20
943.7135452402
  0
LWPOLYLINE
  5
12E
330
1F
100
AcDbEntity
  8
0
  6
Continuous
 62
     7
370
    25
100
AcDbPolyline
 90
       12
 70
   128
 43
0.0
 10
116.9001700539
 20
943.073649979
 10
116.8831590494
 20
943.0464093038
 10
115.8721657627
 20
942.9831417151
 10
113.7581807833
 20
942.915922794
 10
110.8075350468
 20
942.8478528834
 10
107.7915152142
 20
942.7870825325
 10
104.7175614787
 20
942.7301001676
 10
101.7186215083
 20
942.6691241003
 10
99.1451457711
 20
942.6097233479
 10
97.2044511656
 20
942.5518994476
 10
96.0203474846
 20
942.4905663033
 10
95.7897221592
 20
942.4435452402
  0
LWPOLYLINE
  5
12F
330
1F
100
AcDbEntity
  8
0
  6
Continuous
 62
     7
370
    25
100
AcDbPolyline
 90
       12
 70
   128
 43
0.0
 10
116.9001606984
 20
941.8036349976
 10
116.8831590494
 20
941.7764093038
 10
115.8721657627
 20
941.7131417151
 10
113.7581807833
 20
941.645922794
 10
110.8075350468
 20
941.5778528834
 10
107.7915152142
 20
941.5170825325
 10
104.7175614787
 20
941.4601001676
 10
101.7186215083
 20
941.3991241003
 10
99.1451457711
 20
941.3397233479
 10
97.2044511656
 20
941.2818994476
 10
96.0203474846
 20
941.2205663033
 10
95.7897221592
 20
941.1735452402
  0
LWPOLYLINE
  5
130
330
1F
100
AcDbEntity
  8
0
  6
Continuous
 62
     7
370
    25
100
AcDbPolyline
 90
       12
 70
   128
 43
0.0
 10
116.9001513439
 20
940.5336200177
 10
116.8831590494
 20
940.5064093038
 10
115.8721657627
 20
940.4431417151
 10
113.7581807833
 20
940.375922794
 10
110.8075350468
 20
940.3078528834
 10
107.7915152142
 20
940.2470825325
 10
104.7175614787
 20
940.1901001676
 10
101.7186215083
 20
940.1291241003
 10
99.1451457711
 20
940.0697233479
 10
97.2044511656
 20
940.0118994476
 10
96.0203474846
 20
939.9505663033
 10
95.7897221592
 20
939.9035452402
  0
LWPOLYLINE
  5
131
330
1F
100
AcDbEntity
  8
0
  6
Continuous
 62
     7
370
    25
100
AcDbPolyline
 90
       12
 70
   128
 43
0.0
 10
116.9001419905
 20
939.2636050395
 10
116.8831590494
 20
939.2364093038
 10
115.8721657627
 20
939.1731417151
 10
113.7581807833
 20
939.105922794
 10
110.8075350468
 20
939.0378528834
 10
107.7915152142
 20
938.9770825325
 10
104.7175614787
 20
938.9201001676
 10
101.7186215083
 20
938.8591241003
 10
99.1451457711
 20
938.7997233479
 10
97.2044511656
 20
938.7418994476
 10
96.0203474846
 20
938.6805663033
 10
95.7897221592
 20
938.6335452402
  0
LWPOLYLINE
  5
132
330
1F
100
AcDbEntity
  8
0
  6
Continuous
 62
     7
370
    25
100
AcDbPolyline
 90
       12
 70
   128
 43
0.0
 10
116.9001326381
 20
937.993590063
 10
116.8831590494
 20
937.9664093038
 10
115.8721657627
 20
937.9031417151
 10
113.7581807833
 20
937.835922794
 10
110.8075350468
 20
937.7678528834
 10
107.7915152142
 20
937.7070825325
 10
104.7175614787
 20
937.6501001676
 10
101.7186215083
 20
937.5891241003
 10
99.1451457711
 20
937.5297233479
 10
97.2044511656
 20
937.4718994476
 10
96.0203474846
 20
937.4105663033
 10
95.7897221592
 20
937.3635452402
  0
LWPOLYLINE
  5
133
330
1F
100
AcDbEntity
  8
0
  6
Continuous
 62
     7
370
    25
100
AcDbPolyline
 90
       12
 70
   128
 43
0.0
 10
116.9001232868
 20
936.7235750882
 10
116.8831590494
 20
936.6964093038
 10
115.8721657627
 20
936.6331417151
 10
113.7581807833
 20
936.565922794
 10
110.8075350468
 20
936.4978528834
 10
107.7915152142
 20
936.4370825325
 10
104.7175614787
 20
936.3801001676
 10
101.7186215083
 20
936.3191241003
 10
99.1451457711
 20
936.2597233479
 10
97.2044511656
 20
936.2018994476
 10
96.0203474846
 20
936.1405663033
 10
95.7897221592
 20
936.0935452402
  0
LWPOLYLINE
  5
134
330
1F
100
AcDbEntity
  8
0
  6
Continuous
 62
     7
370
    25
100
AcDbPolyline
 90
       12
 70
   128
 43
0.0
 10
116.9001139366
 20
935.4535601153
 10
116.8831590494
 20
935.4264093038
 10
115.8721657627
 20
935.3631417151
 10
113.7581807833
 20
935.295922794
 10
110.8075350468
 20
935.2278528834
 10
107.7915152142
 20
935.1670825325
 10
104.7175614787
 20
935.1101001676
 10
101.7186215083
 20
935.0491241003
 10
99.1451457711
 20
934.9897233479
 10
97.2044511656
 20
934.9318994476
 10
96.0203474846
 20
934.8705663033
 10
95.7897221592
 20
934.8235452402
  0
LWPOLYLINE
  5
135
330
1F
100
AcDbEntity
  8
0
  6
Continuous
 62
     7
370
    25
100
AcDbPolyline
 90
       12
 70
   128
 43
0.0
 10
116.9001045876
 20
934.1835451442
 10
116.8831590494
 20
934.1564093038
 10
115.8721657627
 20
934.0931417151
 10
113.7581807833
 20
934.025922794
 10
110.8075350468
 20
933.9578528834
 10
107.7915152142
 20
933.8970825325
 10
104.7175614787
 20
933.8401001676
 10
101.7186215083
 20
933.7791241003
 10
99.1451457711
 20
933.7197233479
 10
97.2044511656
 20
933.6618994476
 10
96.0203474846
 20
933.6005663033
 10
95.7897221592
 20
933.5535452402
  0
LWPOLYLINE
  5
136
330
1F
100
AcDbEntity
  8
0
  6
Continuous
 62
     7
370
    25
100
AcDbPolyline
 90
       12
 70
   128
 43
0.0
 10
116.9000952399
 20
932.9135301751
 10
116.8831590494
 20
932.8864093038
 10
115.8721657627
 20
932.8231417151
 10
113.7581807833
 20
932.755922794
 10
110.8075350468
 20
932.6878528834
 10
107.7915152142
 20
932.6270825325
 10
104.7175614787
 20
932.5701001676
 10
101.7186215083
 20
932.5091241003
 10
99.1451457711
 20
932.4497233479
 10
97.2044511656
 20
932.3918994476
 10
96.0203474846
 20
932.3305663033
 10
95.7897221592
 20
932.2835452402
  0
LWPOLYLINE
  5
137
330
1F
100
AcDbEntity
  8
0
  6
Continuous
 62
     7
370
    25
100
AcDbPolyline
 90
       10
 70
   128
 43
0.0
 10
116.9000858934
 20
931.6435152081
 10
116.8831590494
 20
931.6164093038
 10
115.8721657627
 20
931.5531417151
 10
113.7581807833
 20
931.485922794
 10
110.8075350468
 20
931.4178528834
 10
107.7915152142
 20
931.3570825325
 10
104.7175614787
 20
931.3001001676
 10
101.7186215083
 20
931.2391241003
 10
99.1451457711
 20
931.1797233479
 10
97.8502994524
 20
931.1441251226
  0
LINE
  5
138
330
1F
100
AcDbEntity
  8
0
  6
Continuous
 62
     7
370
    25
100
AcDbLine
 10
115.8768143286
 20
953.143341602
 30
0.0
 11
116.8031521013
 21
953.143341602
 31
0.0
  0
LINE
  5
139
330
1F
100
AcDbEntity
  8
0
  6
Continuous
 62
     7
370
    25
100
AcDbLine
 10
115.8721648855
 20
953.143341602
 30
0.0
 11
115.8768143242
 21
953.143341602
 31
0.0
  0
LWPOLYLINE
  5
13A
330
1F
100
AcDbEntity
  8
0
  6
Continuous
 62
     7
370
    25
100
AcDbPolyline
 90
        5
 70
   128
 43
0.0
 10
96.4266685645
 20
87.342062952
 10
96.4205378628
 20
87.3441622383
 10
97.0690183487
 20
87.4090123981
 10
98.6680209913
 20
87.4746989573
 10
100.7462284462
 20
87.530069757
  0
LWPOLYLINE
  5
13B
330
1F
100
AcDbEntity
  8
0
  6
Continuous
 62
     7
370
    25
100
AcDbPolyline
 90
       10
 70
   128
 43
0.0
 10
97.8502905952
 20
930.0328748474
 10
100.1644971456
 20
930.0930100511
 10
103.1224645551
 20
930.1573271094
 10
106.3526194974
 20
930.2192342173
 10
109.5832255971
 20
930.2810565808
 10
112.547302876
 20
930.3454001922
 10
114.8702354154
 20
930.4055423331
 10
116.4300403178
 20
930.4696538614
 10
117.018871572
 20
930.5320808409
 10
116.8526398891
 20
930.5566492732
  0
LWPOLYLINE
  5
13C
330
1F
100
AcDbEntity
  8
0
  6
Continuous
 62
     7
370
    25
100
AcDbPolyline
 90
       13
 70
   128
 43
0.0
 10
95.7964096663
 20
931.1764969513
 10
95.8605321906
 20
931.2038757482
 10
96.5734471268
 20
931.2534931664
 10
97.8502905952
 20
931.3028748474
 10
100.1644971456
 20
931.3630100511
 10
103.1224645551
 20
931.4273271094
 10
106.3526194974
 20
931.4892342173
 10
109.5832255971
 20
931.5510565808
 10
112.547302876
 20
931.6154001922
 10
114.8702354154
 20
931.6755423331
 10
116.4300403178
 20
931.7396538614
 10
117.018871572
 20
931.8020808409
 10
116.8525347763
 20
931.8266648085
  0
LWPOLYLINE
  5
13D
330
1F
100
AcDbEntity
  8
0
  6
Continuous
 62
     7
370
    25
100
AcDbPolyline
 90
       13
 70
   128
 43
0.0
 10
95.7964305775
 20
932.4465058799
 10
95.8605321906
 20
932.4738757482
 10
96.5734471268
 20
932.5234931664
 10
97.8502905952
 20
932.5728748474
 10
100.1644971456
 20
932.6330100511
 10
103.1224645551
 20
932.6973271094
 10
106.3526194974
 20
932.7592342173
 10
109.5832255971
 20
932.8210565808
 10
112.547302876
 20
932.8854001922
 10
114.8702354154
 20
932.9455423331
 10
116.4300403178
 20
933.0096538614
 10
117.018871572
 20
933.0720808409
 10
116.8524296241
 20
933.0966803496
  0
LWPOLYLINE
  5
13E
330
1F
100
AcDbEntity
  8
0
  6
Continuous
 62
     7
370
    25
100
AcDbPolyline
 90
       13
 70
   128
 43
0.0
 10
95.7964514949
 20
933.7165148111
 10
95.8605321906
 20
933.7438757482
 10
96.5734471268
 20
933.7934931664
 10
97.8502905952
 20
933.8428748474
 10
100.1644971456
 20
933.9030100511
 10
103.1224645551
 20
933.9673271094
 10
106.3526194974
 20
934.0292342173
 10
109.5832255971
 20
934.0910565808
 10
112.547302876
 20
934.1554001922
 10
114.8702354154
 20
934.2155423331
 10
116.4300403178
 20
934.2796538614
 10
117.018871572
 20
934.3420808409
 10
116.852324433
 20
934.3666958965
  0
LWPOLYLINE
  5
13F
330
1F
100
AcDbEntity
  8
0
  6
Continuous
 62
     7
370
    25
100
AcDbPolyline
 90
       13
 70
   128
 43
0.0
 10
95.7964724184
 20
934.9865237449
 10
95.8605321906
 20
935.0138757482
 10
96.5734471268
 20
935.0634931664
 10
97.8502905952
 20
935.1128748474
 10
100.1644971456
 20
935.1730100511
 10
103.1224645551
 20
935.2373271094
 10
106.3526194974
 20
935.2992342173
 10
109.5832255971
 20
935.3610565808
 10
112.547302876
 20
935.4254001922
 10
114.8702354154
 20
935.4855423331
 10
116.4300403178
 20
935.5496538614
 10
117.018871572
 20
935.6120808409
 10
116.8522192034
 20
935.636711449
  0
LWPOLYLINE
  5
140
330
1F
100
AcDbEntity
  8
0
  6
Continuous
 62
     7
370
    25
100
AcDbPolyline
 90
       13
 70
   128
 43
0.0
 10
95.7964933479
 20
936.2565326814
 10
95.8605321906
 20
936.2838757482
 10
96.5734471268
 20
936.3334931664
 10
97.8502905952
 20
936.3828748474
 10
100.1644971456
 20
936.4430100511
 10
103.1224645551
 20
936.5073271094
 10
106.3526194974
 20
936.5692342173
 10
109.5832255971
 20
936.6310565808
 10
112.547302876
 20
936.6954001922
 10
114.8702354154
 20
936.7555423331
 10
116.4300403178
 20
936.8196538614
 10
117.018871572
 20
936.8820808409
 10
116.8521139359
 20
936.9067270072
  0
LWPOLYLINE
  5
141
330
1F
100
AcDbEntity
  8
0
  6
Continuous
 62
     7
370
    25
100
AcDbPolyline
 90
       13
 70
   128
 43
0.0
 10
95.7965142834
 20
937.5265416203
 10
95.8605321906
 20
937.5538757482
 10
96.5734471268
 20
937.6034931664
 10
97.8502905952
 20
937.6528748474
 10
100.1644971456
 20
937.7130100511
 10
103.1224645551
 20
937.7773271094
 10
106.3526194974
 20
937.8392342173
 10
109.5832255971
 20
937.9010565808
 10
112.547302876
 20
937.9654001922
 10
114.8702354154
 20
938.0255423331
 10
116.4300403178
 20
938.0896538614
 10
117.018871572
 20
938.1520808409
 10
116.8520086308
 20
938.1767425709
  0
LWPOLYLINE
  5
142
330
1F
100
AcDbEntity
  8
0
  6
Continuous
 62
     7
370
    25
100
AcDbPolyline
 90
       13
 70
   128
 43
0.0
 10
95.7965352247
 20
938.7965505618
 10
95.8605321906
 20
938.8238757482
 10
96.5734471268
 20
938.8734931664
 10
97.8502905952
 20
938.9228748474
 10
100.1644971456
 20
938.9830100511
 10
103.1224645551
 20
939.0473271094
 10
106.3526194974
 20
939.1092342173
 10
109.5832255971
 20
939.1710565808
 10
112.547302876
 20
939.2354001922
 10
114.8702354154
 20
939.2955423331
 10
116.4300403178
 20
939.3596538614
 10
117.018871572
 20
939.4220808409
 10
116.8519032886
 20
939.44675814
  0
LWPOLYLINE
  5
143
330
1F
100
AcDbEntity
  8
0
  6
Continuous
 62
     7
370
    25
100
AcDbPolyline
 90
       13
 70
   128
 43
0.0
 10
95.7965561718
 20
940.0665595057
 10
95.8605321906
 20
940.0938757482
 10
96.5734471268
 20
940.1434931664
 10
97.8502905952
 20
940.1928748474
 10
100.1644971456
 20
940.2530100511
 10
103.1224645551
 20
940.3173271094
 10
106.3526194974
 20
940.3792342173
 10
109.5832255971
 20
940.4410565808
 10
112.547302876
 20
940.5054001922
 10
114.8702354154
 20
940.5655423331
 10
116.4300403178
 20
940.6296538614
 10
117.018871572
 20
940.6920808409
 10
116.8517979098
 20
940.7167737146
  0
LWPOLYLINE
  5
144
330
1F
100
AcDbEntity
  8
0
  6
Continuous
 62
     7
370
    25
100
AcDbPolyline
 90
       13
 70
   128
 43
0.0
 10
95.7965771246
 20
941.336568452
 10
95.8605321906
 20
941.3638757482
 10
96.5734471268
 20
941.4134931664
 10
97.8502905952
 20
941.4628748474
 10
100.1644971456
 20
941.5230100511
 10
103.1224645551
 20
941.5873271094
 10
106.3526194974
 20
941.6492342173
 10
109.5832255971
 20
941.7110565808
 10
112.547302876
 20
941.7754001922
 10
114.8702354154
 20
941.8355423331
 10
116.4300403178
 20
941.8996538614
 10
117.018871572
 20
941.9620808409
 10
116.8516924948
 20
941.9867892946
  0
LWPOLYLINE
  5
145
330
1F
100
AcDbEntity
  8
0
  6
Continuous
 62
     7
370
    25
100
AcDbPolyline
 90
       13
 70
   128
 43
0.0
 10
95.7965980829
 20
942.6065774007
 10
95.8605321906
 20
942.6338757482
 10
96.5734471268
 20
942.6834931664
 10
97.8502905952
 20
942.7328748474
 10
100.1644971456
 20
942.7930100511
 10
103.1224645551
 20
942.8573271094
 10
106.3526194974
 20
942.9192342173
 10
109.5832255971
 20
942.9810565808
 10
112.547302876
 20
943.0454001922
 10
114.8702354154
 20
943.1055423331
 10
116.4300403178
 20
943.1696538614
 10
117.018871572
 20
943.2320808409
 10
116.8515870441
 20
943.2568048798
  0
LWPOLYLINE
  5
146
330
1F
100
AcDbEntity
  8
0
  6
Continuous
 62
     7
370
    25
100
AcDbPolyline
 90
       13
 70
   128
 43
0.0
 10
95.7966190467
 20
943.8765863518
 10
95.8605321906
 20
943.9038757482
 10
96.5734471268
 20
943.9534931664
 10
97.8502905952
 20
944.0028748474
 10
100.1644971456
 20
944.0630100511
 10
103.1224645551
 20
944.1273271094
 10
106.3526194974
 20
944.1892342173
 10
109.5832255971
 20
944.2510565808
 10
112.547302876
 20
944.3154001922
 10
114.8702354154
 20
944.3755423331
 10
116.4300403178
 20
944.4396538614
 10
117.018871572
 20
944.5020808409
 10
116.8514815581
 20
944.5268204703
  0
LWPOLYLINE
  5
147
330
1F
100
AcDbEntity
  8
0
  6
Continuous
 62
     7
370
    25
100
AcDbPolyline
 90
       13
 70
   128
 43
0.0
 10
95.796640016
 20
945.1465953051
 10
95.8605321906
 20
945.1738757482
 10
96.5734471268
 20
945.2234931664
 10
97.8502905952
 20
945.2728748474
 10
100.1644971456
 20
945.3330100511
 10
103.1224645551
 20
945.3973271094
 10
106.3526194974
 20
945.4592342173
 10
109.5832255971
 20
945.5210565808
 10
112.547302876
 20
945.5854001922
 10
114.8702354154
 20
945.6455423331
 10
116.4300403178
 20
945.7096538614
 10
117.018871572
 20
945.7720808409
 10
116.8513760374
 20
945.7968360658
  0
LWPOLYLINE
  5
148
330
1F
100
AcDbEntity
  8
0
  6
Continuous
 62
     7
370
    25
100
AcDbPolyline
 90
       13
 70
   128
 43
0.0
 10
95.7966609905
 20
946.4166042608
 10
95.8605321906
 20
946.4438757482
 10
96.5734471268
 20
946.4934931664
 10
97.8502905952
 20
946.5428748474
 10
100.1644971456
 20
946.6030100511
 10
103.1224645551
 20
946.6673271094
 10
106.3526194974
 20
946.7292342173
 10
109.5832255971
 20
946.7910565808
 10
112.547302876
 20
946.8554001922
 10
114.8702354154
 20
946.9155423331
 10
116.4300403178
 20
946.9796538614
 10
117.018871572
 20
947.0420808409
 10
116.8512704823
 20
947.0668516665
  0
LWPOLYLINE
  5
149
330
1F
100
AcDbEntity
  8
0
  6
Continuous
 62
     7
370
    25
100
AcDbPolyline
 90
       13
 70
   128
 43
0.0
 10
95.7966819703
 20
947.6866132186
 10
95.8605321906
 20
947.7138757482
 10
96.5734471268
 20
947.7634931664
 10
97.8502905952
 20
947.8128748474
 10
100.1644971456
 20
947.8730100511
 10
103.1224645551
 20
947.9373271094
 10
106.3526194974
 20
947.9992342173
 10
109.5832255971
 20
948.0610565808
 10
112.547302876
 20
948.1254001922
 10
114.8702354154
 20
948.1855423331
 10
116.4300403178
 20
948.2496538614
 10
117.018871572
 20
948.3120808409
 10
116.8511648933
 20
948.3368672722
  0
LWPOLYLINE
  5
14A
330
1F
100
AcDbEntity
  8
0
  6
Continuous
 62
     7
370
    25
100
AcDbPolyline
 90
       13
 70
   128
 43
0.0
 10
95.7967029552
 20
948.9566221787
 10
95.8605321906
 20
948.9838757482
 10
96.5734471268
 20
949.0334931664
 10
97.8502905952
 20
949.0828748474
 10
100.1644971456
 20
949.1430100511
 10
103.1224645551
 20
949.2073271094
 10
106.3526194974
 20
949.2692342173
 10
109.5832255971
 20
949.3310565808
 10
112.547302876
 20
949.3954001922
 10
114.8702354154
 20
949.4555423331
 10
116.4300403178
 20
949.5196538614
 10
117.018871572
 20
949.5820808409
 10
116.8510592709
 20
949.6068828828
  0
LWPOLYLINE
  5
14B
330
1F
100
AcDbEntity
  8
0
  6
Continuous
 62
     7
370
    25
100
AcDbPolyline
 90
       13
 70
   128
 43
0.0
 10
95.7967239451
 20
950.2266311409
 10
95.8605321906
 20
950.2538757482
 10
96.5734471268
 20
950.3034931664
 10
97.8502905952
 20
950.3528748474
 10
100.1644971456
 20
950.4130100511
 10
103.1224645551
 20
950.4773271094
 10
106.3526194974
 20
950.5392342173
 10
109.5832255971
 20
950.6010565808
 10
112.547302876
 20
950.6654001922
 10
114.8702354154
 20
950.7255423331
 10
116.4300403178
 20
950.7896538614
 10
117.018871572
 20
950.8520808409
 10
116.8509536156
 20
950.8768984982
  0
LWPOLYLINE
  5
14C
330
1F
100
AcDbEntity
  8
0
  6
Continuous
 62
     7
370
    25
100
AcDbPolyline
 90
       13
 70
   128
 43
0.0
 10
95.7967449401
 20
951.4966401052
 10
95.8605321906
 20
951.5238757482
 10
96.5734471268
 20
951.5734931664
 10
97.8502905952
 20
951.6228748474
 10
100.1644971456
 20
951.6830100511
 10
103.1224645551
 20
951.7473271094
 10
106.3526194974
 20
951.8092342173
 10
109.5832255971
 20
951.8710565808
 10
112.547302876
 20
951.9354001922
 10
114.8702354154
 20
951.9955423331
 10
116.4300403178
 20
952.0596538614
 10
117.018871572
 20
952.1220808409
 10
116.8508479277
 20
952.1469141185
  0
ARC
  5
14D
330
1F
100
AcDbEntity
  8
0
  6
Continuous
 62
     7
370
    25
100
AcDbCircle
 10
112.36197882
 20
598.1631146103
 30
0.0
 40
354.9902434296279
100
AcDbArc
 50
90.4304146999
 51
92.6746131563
  0
LINE
  5
14E
330
1F
100
AcDbEntity
  8
0
  6
Continuous
 62
     7
370
    25
100
AcDbLine
 10
98.4003603322
 20
930.4297498457
 30
0.0
 11
97.8503028291
 21
930.0328748478
 31
0.0
  0
LWPOLYLINE
  5
14F
330
1F
100
AcDbEntity
  8
0
  6
Continuous
 62
     7
370
    25
100
AcDbPolyline
 90
       12
 70
   128
 43
0.0
 10
116.2947353091
 20
952.5238297679
 10
116.0010430883
 20
952.4721007484
 10
114.832002142
 20
952.4107760514
 10
112.970177074
 20
952.3532724189
 10
110.5212727847
 20
952.2934778889
 10
107.6999229349
 20
952.2327075379
 10
104.8243785327
 20
952.1757251731
 10
102.0190060934
 20
952.1147491061
 10
99.6116361392
 20
952.0553483534
 10
97.7499852775
 20
951.9956363706
 10
96.6472538525
 20
951.9324393584
 10
96.5135718397
 20
951.8939533647
  0
LWPOLYLINE
  5
150
330
1F
100
AcDbEntity
  8
0
  6
Continuous
 62
     7
370
    25
100
AcDbPolyline
 90
       12
 70
   128
 43
0.0
 10
116.2945667725
 20
951.253800083
 10
116.0010430883
 20
951.2021007484
 10
114.832002142
 20
951.1407760514
 10
112.970177074
 20
951.0832724189
 10
110.5212727847
 20
951.0234778889
 10
107.6999229349
 20
950.9627075379
 10
104.8243785327
 20
950.9057251731
 10
102.0190060934
 20
950.8447491061
 10
99.6116361392
 20
950.7853483534
 10
97.7499852775
 20
950.7256363706
 10
96.6472538525
 20
950.6624393584
 10
96.5135501041
 20
950.6239471072
  0
LWPOLYLINE
  5
151
330
1F
100
AcDbEntity
  8
0
  6
Continuous
 62
     7
370
    25
100
AcDbPolyline
 90
       12
 70
   128
 43
0.0
 10
116.2943982202
 20
949.9837703953
 10
116.0010430883
 20
949.9321007484
 10
114.832002142
 20
949.8707760514
 10
112.970177074
 20
949.8132724189
 10
110.5212727847
 20
949.7534778889
 10
107.6999229349
 20
949.6927075379
 10
104.8243785327
 20
949.6357251731
 10
102.0190060934
 20
949.5747491061
 10
99.6116361392
 20
949.5153483534
 10
97.7499852775
 20
949.4556363706
 10
96.6472538525
 20
949.3924393584
 10
96.5135283532
 20
949.3539408453
  0
LWPOLYLINE
  5
152
330
1F
100
AcDbEntity
  8
0
  6
Continuous
 62
     7
370
    25
100
AcDbPolyline
 90
       12
 70
   128
 43
0.0
 10
116.2942296522
 20
948.7137407048
 10
116.0010430883
 20
948.6621007484
 10
114.832002142
 20
948.6007760514
 10
112.970177074
 20
948.5432724189
 10
110.5212727847
 20
948.4834778889
 10
107.6999229349
 20
948.4227075379
 10
104.8243785327
 20
948.3657251731
 10
102.0190060934
 20
948.3047491061
 10
99.6116361392
 20
948.2453483534
 10
97.7499852775
 20
948.1856363706
 10
96.6472538525
 20
948.1224393584
 10
96.5135065869
 20
948.083934579
  0
LWPOLYLINE
  5
153
330
1F
100
AcDbEntity
  8
0
  6
Continuous
 62
     7
370
    25
100
AcDbPolyline
 90
       12
 70
   128
 43
0.0
 10
116.2940610683
 20
947.4437110116
 10
116.0010430883
 20
947.3921007484
 10
114.832002142
 20
947.3307760514
 10
112.970177074
 20
947.2732724189
 10
110.5212727847
 20
947.2134778889
 10
107.6999229349
 20
947.1527075379
 10
104.8243785327
 20
947.0957251731
 10
102.0190060934
 20
947.0347491061
 10
99.6116361392
 20
946.9753483534
 10
97.7499852775
 20
946.9156363706
 10
96.6472538525
 20
946.8524393584
 10
96.5134848051
 20
946.8139283082
  0
LWPOLYLINE
  5
154
330
1F
100
AcDbEntity
  8
0
  6
Continuous
 62
     7
370
    25
100
AcDbPolyline
 90
       12
 70
   128
 43
0.0
 10
116.2938924688
 20
946.1736813156
 10
116.0010430883
 20
946.1221007484
 10
114.832002142
 20
946.0607760514
 10
112.970177074
 20
946.0032724189
 10
110.5212727847
 20
945.9434778889
 10
107.6999229349
 20
945.8827075379
 10
104.8243785327
 20
945.8257251731
 10
102.0190060934
 20
945.7647491061
 10
99.6116361392
 20
945.7053483534
 10
97.7499852775
 20
945.6456363706
 10
96.6472538525
 20
945.5824393584
 10
96.5134630074
 20
945.5439220328
  0
LWPOLYLINE
  5
155
330
1F
100
AcDbEntity
  8
0
  6
Continuous
 62
     7
370
    25
100
AcDbPolyline
 90
       12
 70
   128
 43
0.0
 10
116.2937238535
 20
944.9036516168
 10
116.0010430883
 20
944.8521007484
 10
114.832002142
 20
944.7907760514
 10
112.970177074
 20
944.7332724189
 10
110.5212727847
 20
944.6734778889
 10
107.6999229349
 20
944.6127075379
 10
104.8243785327
 20
944.5557251731
 10
102.0190060934
 20
944.4947491061
 10
99.6116361392
 20
944.4353483534
 10
97.7499852775
 20
944.3756363706
 10
96.6472538525
 20
944.3124393584
 10
96.5134411939
 20
944.2739157529
  0
LWPOLYLINE
  5
156
330
1F
100
AcDbEntity
  8
0
  6
Continuous
 62
     7
370
    25
100
AcDbPolyline
 90
       12
 70
   128
 43
0.0
 10
116.2935552226
 20
943.6336219153
 10
116.0010430883
 20
943.5821007484
 10
114.832002142
 20
943.5207760514
 10
112.970177074
 20
943.4632724189
 10
110.5212727847
 20
943.4034778889
 10
107.6999229349
 20
943.3427075379
 10
104.8243785327
 20
943.2857251731
 10
102.0190060934
 20
943.2247491061
 10
99.6116361392
 20
943.1653483534
 10
97.7499852775
 20
943.1056363706
 10
96.6472538525
 20
943.0424393584
 10
96.5134193643
 20
943.0039094683
  0
LWPOLYLINE
  5
157
330
1F
100
AcDbEntity
  8
0
  6
Continuous
 62
     7
370
    25
100
AcDbPolyline
 90
       12
 70
   128
 43
0.0
 10
116.293386576
 20
942.3635922109
 10
116.0010430883
 20
942.3121007484
 10
114.832002142
 20
942.2507760514
 10
112.970177074
 20
942.1932724189
 10
110.5212727847
 20
942.1334778889
 10
107.6999229349
 20
942.0727075379
 10
104.8243785327
 20
942.0157251731
 10
102.0190060934
 20
941.9547491061
 10
99.6116361392
 20
941.8953483534
 10
97.7499852775
 20
941.8356363706
 10
96.6472538525
 20
941.7724393584
 10
96.5133975184
 20
941.733903179
  0
LWPOLYLINE
  5
158
330
1F
100
AcDbEntity
  8
0
  6
Continuous
 62
     7
370
    25
100
AcDbPolyline
 90
       12
 70
   128
 43
0.0
 10
116.2932179137
 20
941.0935625039
 10
116.0010430883
 20
941.0421007484
 10
114.832002142
 20
940.9807760514
 10
112.970177074
 20
940.9232724189
 10
110.5212727847
 20
940.8634778889
 10
107.6999229349
 20
940.8027075379
 10
104.8243785327
 20
940.7457251731
 10
102.0190060934
 20
940.6847491061
 10
99.6116361392
 20
940.6253483534
 10
97.7499852775
 20
940.5656363706
 10
96.6472538525
 20
940.5024393584
 10
96.5133756561
 20
940.463896885
  0
LWPOLYLINE
  5
159
330
1F
100
AcDbEntity
  8
0
  6
Continuous
 62
     7
370
    25
100
AcDbPolyline
 90
       12
 70
   128
 43
0.0
 10
116.2930492359
 20
939.8235327941
 10
116.0010430883
 20
939.7721007484
 10
114.832002142
 20
939.7107760514
 10
112.970177074
 20
939.6532724189
 10
110.5212727847
 20
939.5934778889
 10
107.6999229349
 20
939.5327075379
 10
104.8243785327
 20
939.4757251731
 10
102.0190060934
 20
939.4147491061
 10
99.6116361392
 20
939.3553483534
 10
97.7499852775
 20
939.2956363706
 10
96.6472538525
 20
939.2324393584
 10
96.5133537772
 20
939.1938905863
  0
LWPOLYLINE
  5
15A
330
1F
100
AcDbEntity
  8
0
  6
Continuous
 62
     7
370
    25
100
AcDbPolyline
 90
       12
 70
   128
 43
0.0
 10
116.2928805424
 20
938.5535030815
 10
116.0010430883
 20
938.5021007484
 10
114.832002142
 20
938.4407760514
 10
112.970177074
 20
938.3832724189
 10
110.5212727847
 20
938.3234778889
 10
107.6999229349
 20
938.2627075379
 10
104.8243785327
 20
938.2057251731
 10
102.0190060934
 20
938.1447491061
 10
99.6116361392
 20
938.0853483534
 10
97.7499852775
 20
938.0256363706
 10
96.6472538525
 20
937.9624393584
 10
96.5133318815
 20
937.9238842827
  0
LWPOLYLINE
  5
15B
330
1F
100
AcDbEntity
  8
0
  6
Continuous
 62
     7
370
    25
100
AcDbPolyline
 90
       12
 70
   128
 43
0.0
 10
116.2927118333
 20
937.2834733662
 10
116.0010430883
 20
937.2321007484
 10
114.832002142
 20
937.1707760514
 10
112.970177074
 20
937.1132724189
 10
110.5212727847
 20
937.0534778889
 10
107.6999229349
 20
936.9927075379
 10
104.8243785327
 20
936.9357251731
 10
102.0190060934
 20
936.8747491061
 10
99.6116361392
 20
936.8153483534
 10
97.7499852775
 20
936.7556363706
 10
96.6472538525
 20
936.6924393584
 10
96.5133099689
 20
936.6538779742
  0
LWPOLYLINE
  5
15C
330
1F
100
AcDbEntity
  8
0
  6
Continuous
 62
     7
370
    25
100
AcDbPolyline
 90
       12
 70
   128
 43
0.0
 10
116.2925431087
 20
936.0134436481
 10
116.0010430883
 20
935.9621007484
 10
114.832002142
 20
935.9007760514
 10
112.970177074
 20
935.8432724189
 10
110.5212727847
 20
935.7834778889
 10
107.6999229349
 20
935.7227075379
 10
104.8243785327
 20
935.6657251731
 10
102.0190060934
 20
935.6047491061
 10
99.6116361392
 20
935.5453483534
 10
97.7499852775
 20
935.4856363706
 10
96.6472538525
 20
935.4224393584
 10
96.5132880392
 20
935.3838716608
  0
LWPOLYLINE
  5
15D
330
1F
100
AcDbEntity
  8
0
  6
Continuous
 62
     7
370
    25
100
AcDbPolyline
 90
       12
 70
   128
 43
0.0
 10
116.2923743685
 20
934.7434139274
 10
116.0010430883
 20
934.6921007484
 10
114.832002142
 20
934.6307760514
 10
112.970177074
 20
934.5732724189
 10
110.5212727847
 20
934.5134778889
 10
107.6999229349
 20
934.4527075379
 10
104.8243785327
 20
934.3957251731
 10
102.0190060934
 20
934.3347491061
 10
99.6116361392
 20
934.2753483534
 10
97.7499852775
 20
934.2156363706
 10
96.6472538525
 20
934.1524393584
 10
96.5132660922
 20
934.1138653424
  0
LWPOLYLINE
  5
15E
330
1F
100
AcDbEntity
  8
0
  6
Continuous
 62
     7
370
    25
100
AcDbPolyline
 90
       12
 70
   128
 43
0.0
 10
116.2922056128
 20
933.4733842038
 10
116.0010430883
 20
933.4221007484
 10
114.832002142
 20
933.3607760514
 10
112.970177074
 20
933.3032724189
 10
110.5212727847
 20
933.2434778889
 10
107.6999229349
 20
933.1827075379
 10
104.8243785327
 20
933.1257251731
 10
102.0190060934
 20
933.0647491061
 10
99.6116361392
 20
933.0053483534
 10
97.7499852775
 20
932.9456363706
 10
96.6472538525
 20
932.8824393584
 10
96.5132441277
 20
932.843859019
  0
LWPOLYLINE
  5
15F
330
1F
100
AcDbEntity
  8
0
  6
Continuous
 62
     7
370
    25
100
AcDbPolyline
 90
       12
 70
   128
 43
0.0
 10
116.2920368416
 20
932.2033544776
 10
116.0010430883
 20
932.1521007484
 10
114.832002142
 20
932.0907760514
 10
112.970177074
 20
932.0332724189
 10
110.5212727847
 20
931.9734778889
 10
107.6999229349
 20
931.9127075379
 10
104.8243785327
 20
931.8557251731
 10
102.0190060934
 20
931.7947491061
 10
99.6116361392
 20
931.7353483534
 10
97.7499852775
 20
931.6756363706
 10
96.6472538525
 20
931.6124393584
 10
96.5132221456
 20
931.5738526906
  0
LWPOLYLINE
  5
160
330
1F
100
AcDbEntity
  8
0
  6
Continuous
 62
     7
370
    25
100
AcDbPolyline
 90
       10
 70
   128
 43
0.0
 10
116.2918680549
 20
930.9333247486
 10
116.0010430883
 20
930.8821007484
 10
114.832002142
 20
930.8207760514
 10
112.970177074
 20
930.7632724189
 10
110.5212727847
 20
930.7034778889
 10
107.6999229349
 20
930.6427075379
 10
104.8243785327
 20
930.5857251731
 10
102.0190060934
 20
930.5247491061
 10
99.6116361392
 20
930.4653483534
 10
98.4003576635
 20
930.4297498456
  0
LINE
  5
161
330
1F
100
AcDbEntity
  8
0
  6
Continuous
 62
     7
370
    25
100
AcDbLine
 10
109.6952626443
 20
953.143341602
 30
0.0
 11
96.3925612199
 21
953.143341602
 31
0.0
  0
ARC
  5
162
330
1F
100
AcDbEntity
  8
0
  6
Continuous
 62
     7
370
    25
100
AcDbCircle
 10
108.7927452512
 20
212.1231887815
 30
0.0
 40
124.9798489732254
100
AcDbArc
 50
269.9902928925
 51
273.7755699288
  0
LWPOLYLINE
  5
163
330
1F
100
AcDbEntity
  8
0
  6
Continuous
 62
     7
370
    25
100
AcDbPolyline
 90
        6
 70
   128
 43
0.0
 10
95.7884040931
 20
88.0493787156
 10
95.7338654508
 20
88.0585372345
 10
96.4270903202
 20
88.1233873939
 10
98.1364223054
 20
88.189073953
 10
100.6370378995
 20
88.2513988529
 10
100.7462329765
 20
88.2538768616
  0
LWPOLYLINE
  5
164
330
1F
100
AcDbEntity
  8
0
  6
Continuous
 62
     7
370
    25
100
AcDbPolyline
 90
        5
 70
   128
 43
0.0
 10
96.4723969084
 20
87.6523528139
 10
96.4205378579
 20
87.6616622363
 10
97.0690183061
 20
87.7265123956
 10
98.6680209108
 20
87.7921989548
 10
100.7462233702
 20
87.8475696219
  0
LINE
  5
165
330
1F
100
AcDbEntity
  8
0
  6
Continuous
 62
     7
370
    25
100
AcDbLine
 10
97.8503028289
 20
930.032874987
 30
0.0
 11
97.8502893229
 21
931.1441251222
 31
0.0
  0
LINE
  5
166
330
1F
100
AcDbEntity
  8
0
  6
Continuous
 62
     7
370
    25
100
AcDbLine
 10
100.7462168743
 20
88.2538768614
 30
0.0
 11
100.7462346405
 21
87.1426269027
 31
0.0
  0
LINE
  5
167
330
1F
100
AcDbEntity
  8
0
  6
Continuous
 62
     7
370
    25
100
AcDbLine
 10
109.6952626443
 20
953.143341602
 30
0.0
 11
115.8721648855
 21
953.143341602
 31
0.0
  0
LINE
  5
168
330
1F
100
AcDbEntity
  8
0
  6
Continuous
 62
     7
370
    25
100
AcDbLine
 10
98.4003564733
 20
930.7472498059
 30
0.0
 11
98.4003603322
 21
930.429749806
 31
0.0
  0
LINE
  5
169
330
1F
100
AcDbEntity
  8
0
  6
Continuous
 62
     7
370
    25
100
AcDbLine
 10
90.335066505
 20
58.697841602
 30
0.0
 11
90.335066505
 21
63.588841602
 31
0.0
  0
LINE
  5
16A
330
1F
100
AcDbEntity
  8
0
  6
Continuous
 62
     7
370
    25
100
AcDbLine
 10
90.6552072292
 20
58.143341602
 30
0.0
 11
90.6552072292
 21
64.143341602
 31
0.0
  0
LINE
  5
16B
330
1F
100
AcDbEntity
  8
0
  6
Continuous
 62
     7
370
    25
100
AcDbLine
 10
106.3724741662
 20
86.143341602
 30
0.0
 11
91.3724741662
 21
86.143341602
 31
0.0
  0
LINE
  5
16C
330
1F
100
AcDbEntity
  8
0
  6
Continuous
 62
     7
370
    25
100
AcDbLine
 10
121.3724741662
 20
86.143341602
 30
0.0
 11
106.3724741662
 21
86.143341602
 31
0.0
  0
LINE
  5
16D
330
1F
100
AcDbEntity
  8
0
  6
Continuous
 62
     7
370
    25
100
AcDbLine
 10
106.3724741662
 20
87.143341602
 30
0.0
 11
120.3724741662
 21
87.143341602
 31
0.0
  0
LINE
  5
16E
330
1F
100
AcDbEntity
  8
0
  6
Continuous
 62
     7
370
    25
100
AcDbLine
 10
92.3724741662
 20
87.143341602
 30
0.0
 11
106.3724741662
 21
87.143341602
 31
0.0
  0
LINE
  5
16F
330
1F
100
AcDbEntity
  8
0
  6
Continuous
 62
     7
370
    25
100
AcDbLine
 10
106.3724741662
 20
54.143341602
 30
0.0
 11
121.3724741662
 21
54.143341602
 31
0.0
  0
LINE
  5
170
330
1F
100
AcDbEntity
  8
0
  6
Continuous
 62
     7
370
    25
100
AcDbLine
 10
91.3724741662
 20
54.143341602
 30
0.0
 11
106.3724741662
 21
54.143341602
 31
0.0
  0
LWPOLYLINE
  5
171
330
1F
100
AcDbEntity
  8
0
  6
Continuous
 62
     7
370
    25
100
AcDbPolyline
 90
       13
 70
   128
 43
0.0
 10
91.3725946435
 20
63.9811935101
 10
91.372474513
 20
63.9818153477
 10
91.4145070011
 20
63.764216786
 10
91.5156635566
 20
63.1492594675
 10
91.6174323634
 20
62.2299362375
 10
91.6488941588
 20
61.6962647778
 10
91.6599030594
 20
61.1414329943
 10
91.6487735039
 20
60.5873956253
 10
91.6171669139
 20
60.0533516505
 10
91.5152977543
 20
59.1348693465
 10
91.4142760091
 20
58.5212229838
 10
91.3724741662
 20
58.3048661276
 10
91.3724741662
 20
58.3048661276
  0
LINE
  5
172
330
1F
100
AcDbEntity
  8
0
  6
Continuous
 62
     7
370
    25
100
AcDbLine
 10
106.3724741662
 20
53.143341602
 30
0.0
 11
92.3724741662
 21
53.143341602
 31
0.0
  0
LINE
  5
173
330
1F
100
AcDbEntity
  8
0
  6
Continuous
 62
     7
370
    25
100
AcDbLine
 10
120.3724741662
 20
53.143341602
 30
0.0
 11
106.3724741662
 21
53.143341602
 31
0.0
  0
LINE
  5
174
330
1F
100
AcDbEntity
  8
0
  6
Continuous
 62
     7
370
    25
100
AcDbLine
 10
90.6552072292
 20
984.4511700337
 30
0.0
 11
91.6755357095
 21
984.4511700337
 31
0.0
  0
LINE
  5
175
330
1F
100
AcDbEntity
  8
0
  6
Continuous
 62
     7
370
    25
100
AcDbLine
 10
91.6755357095
 20
990.4511700337
 30
0.0
 11
90.6552072292
 21
990.4511700337
 31
0.0
  0
LINE
  5
176
330
1F
100
AcDbEntity
  8
0
  6
Continuous
 62
     7
370
    25
100
AcDbLine
 10
90.6552072292
 20
990.4511700337
 30
0.0
 11
90.335066505
 21
989.8966700337
 31
0.0
  0
LINE
  5
177
330
1F
100
AcDbEntity
  8
0
  6
Continuous
 62
     7
370
    25
100
AcDbLine
 10
90.335066505
 20
985.0056700337
 30
0.0
 11
90.6552072292
 21
984.4511700337
 31
0.0
  0
LINE
  5
178
330
1F
100
AcDbEntity
  8
0
  6
Continuous
 62
     7
370
    25
100
AcDbLine
 10
90.6552072292
 20
988.3895068012
 30
0.0
 11
90.6552072292
 21
990.4511700337
 31
0.0
  0
LINE
  5
179
330
1F
100
AcDbEntity
  8
0
  6
Continuous
 62
     7
370
    25
100
AcDbLine
 10
90.6552072292
 20
984.4511700337
 30
0.0
 11
90.6552072292
 21
988.3895068012
 31
0.0
  0
LINE
  5
17A
330
1F
100
AcDbEntity
  8
0
  6
Continuous
 62
     7
370
    25
100
AcDbLine
 10
90.335066505
 20
988.2160708886
 30
0.0
 11
90.335066505
 21
989.8966700337
 31
0.0
  0
LINE
  5
17B
330
1F
100
AcDbEntity
  8
0
  6
Continuous
 62
     7
370
    25
100
AcDbLine
 10
90.335066505
 20
985.0056700337
 30
0.0
 11
90.335066505
 21
988.2160708886
 31
0.0
  0
CIRCLE
  5
17C
330
1F
100
AcDbEntity
  8
0
  6
Continuous
 62
     7
370
    25
100
AcDbCircle
 10
106.3724741662
 20
987.4511700337
 30
0.0
 40
7.649999999999991
  0
ARC
  5
17D
330
1F
100
AcDbEntity
  8
0
  6
Continuous
 62
     7
370
    25
100
AcDbCircle
 10
106.2871370548
 20
987.9657199874
 30
0.0
 40
9.667476424861638
100
AcDbArc
 50
330.6856386446
 51
53.5114594302
  0
ARC
  5
17E
330
1F
100
AcDbEntity
  8
0
  6
Continuous
 62
     7
370
    25
100
AcDbCircle
 10
106.3724741662
 20
987.4511700337
 30
0.0
 40
9.350000000000094
100
AcDbArc
 50
333.1797359459
 51
63.1797369068
  0
LWPOLYLINE
  5
17F
330
1F
100
AcDbEntity
  8
0
  6
Continuous
 62
     7
370
    25
100
AcDbPolyline
 90
       72
 70
   128
 43
0.0
 10
116.2369750338
 20
989.3062105159
 10
116.2369923839
 20
989.3061112615
 10
116.2372698497
 20
989.3045231677
 10
116.2394804178
 20
989.2918168177
 10
116.2438526967
 20
989.2663956483
 10
116.2764845321
 20
989.0626257434
 10
116.3291901476
 20
988.6532062627
 10
116.3840552598
 20
987.8289094733
 10
116.3860822567
 20
987.4165412323
 10
116.33875917
 20
986.5897862101
 10
116.2207892428
 20
985.7581541435
 10
116.0299680145
 20
984.9276889501
 10
115.907499927
 20
984.5174694109
 10
115.7737877728
 20
984.1298621108
 10
115.4576318799
 20
983.3696036539
 10
115.0739845053
 20
982.6278974327
 10
114.6227770553
 20
981.9110699377
 10
114.3735701565
 20
981.5661495296
 10
114.1208535981
 20
981.2455332437
 10
113.5746868556
 20
980.6342003089
 10
112.971253929
 20
980.062318993
 10
112.3121705056
 20
979.53620031
 10
111.9647506699
 20
979.2936773163
 10
111.6212625496
 20
979.0748199978
 10
110.9055200252
 20
978.6789909826
 10
110.1485818645
 20
978.3394919274
 10
109.3543282497
 20
978.0613292811
 10
108.9471577037
 20
977.9474331054
 10
107.7540429328
 20
977.7183627673
 10
106.9343312925
 20
977.6474219912
 10
106.0998624628
 20
977.6455530398
 10
105.6814367151
 20
977.6714407244
 10
104.4794252964
 20
977.8476145139
 10
103.6820046609
 20
978.0511971514
 10
102.8934689192
 20
978.3256215599
 10
102.5069691865
 20
978.4886549773
 10
101.4404998347
 20
979.0470767573
 10
100.7611609219
 20
979.4978449375
 10
100.1130195301
 20
980.0113081417
 10
99.8044775669
 20
980.2894435087
 10
98.9813685996
 20
981.1659255249
 10
98.4886699672
 20
981.8145095929
 10
98.0464714001
 20
982.5125040353
 10
97.8472836305
 20
982.8767297809
 10
97.3630288774
 20
983.9697744603
 10
97.1135332848
 20
984.7401265862
 10
96.9272692428
 20
985.5400714166
 10
96.8595374518
 20
985.9471072427
 10
96.7621767731
 20
987.1330407911
 10
96.7795756249
 20
987.9387663178
 10
96.8664315714
 20
988.7516274277
 10
96.9361993151
 20
989.1563746492
 10
97.2349049618
 20
990.3055006478
 10
97.5171245264
 20
991.0586478892
 10
97.8670687771
 20
991.7956819702
 10
98.066249153
 20
992.1539444238
 10
98.7217186452
 20
993.1319304477
 10
99.2315629274
 20
993.7449321644
 10
99.7990116831
 20
994.3210386026
 10
100.1020086405
 20
994.5916451556
 10
101.0425964045
 20
995.2996612591
 10
101.7263217743
 20
995.7102673554
 10
102.4527957617
 20
996.0664705964
 10
102.8285271047
 20
996.2216222769
 10
103.9399505883
 20
996.5757105035
 10
104.7133985251
 20
996.7364957804
 10
105.9106186601
 20
996.8560834516
 10
107.0778557813
 20
996.8256394698
 10
107.8602011633
 20
996.722914191
 10
109.0259492873
 20
996.4415431941
 10
109.8207694463
 20
996.1549174724
 10
110.591130421
 20
995.7953559978
  0
ARC
  5
180
330
1F
100
AcDbEntity
  8
0
  6
Continuous
 62
     7
370
    25
100
AcDbCircle
 10
106.3724741662
 20
987.4511700337
 30
0.0
 40
10.03740766124943
100
AcDbArc
 50
10.6502130226
 51
55.6502130226
  0
CIRCLE
  5
181
330
1F
100
AcDbEntity
  8
0
  6
Continuous
 62
     7
370
    25
100
AcDbCircle
 10
106.3724741662
 20
987.4511700337
 30
0.0
 40
10.35000000000014
  0
CIRCLE
  5
182
330
1F
100
AcDbEntity
  8
0
  6
Continuous
 62
     7
370
    25
100
AcDbCircle
 10
106.3724741662
 20
987.4511700337
 30
0.0
 40
14.0
  0
CIRCLE
  5
183
330
1F
100
AcDbEntity
  8
0
  6
Continuous
 62
     7
370
    25
100
AcDbCircle
 10
106.3724741662
 20
987.4511700337
 30
0.0
 40
15.00000000000011
  0
ARC
  5
184
330
1F
100
AcDbEntity
  8
0
  6
Continuous
 62
     7
370
    25
100
AcDbCircle
 10
106.3719759613
 20
987.4486974745
 30
0.0
 40
9.34932932543703
100
AcDbArc
 50
66.0025076355
 51
333.194636145
  0
ARC
  5
185
330
1F
100
AcDbEntity
  8
0
  6
Continuous
 62
     7
370
    25
100
AcDbCircle
 10
106.3724741661
 20
987.4511700337
 30
0.0
 40
9.349999999916305
100
AcDbArc
 50
166.4585884026
 51
167.7437917097
  0
LWPOLYLINE
  5
186
330
1F
100
AcDbEntity
  8
0
  6
Continuous
 62
     7
370
    25
100
AcDbPolyline
 90
        3
 70
   128
 43
0.0
 10
97.2645815148
 20
989.5651216532
 10
97.362167731
 20
989.9485442435
 10
97.5226853986
 20
990.3798948543
  0
LINE
  5
187
330
1F
100
AcDbEntity
  8
0
  6
Continuous
 62
     7
370
    25
100
AcDbLine
 10
97.3804242957
 20
984.9042011785
 30
0.0
 11
97.3614033397
 21
984.9565553221
 31
0.0
  0
LINE
  5
188
330
1F
100
AcDbEntity
  8
0
  6
Continuous
 62
     7
370
    25
100
AcDbLine
 10
97.362722597
 20
989.9505452877
 30
0.0
 11
97.5247606654
 21
990.3868127547
 31
0.0
  0
LINE
  5
189
330
1F
100
AcDbEntity
  8
0
  6
Continuous
 62
     7
370
    25
100
AcDbLine
 10
97.3804242957
 20
984.9042011785
 30
0.0
 11
97.294556149
 21
985.2119950803
 31
0.0
  0
LWPOLYLINE
  5
18A
330
1F
100
AcDbEntity
  8
0
  6
Continuous
 62
     7
370
    25
100
AcDbPolyline
 90
        3
 70
   128
 43
0.0
 10
97.0380290956
 20
987.9902759826
 10
97.219459625
 20
989.3603124611
 10
97.2237980236
 20
989.3753632706
  0
LINE
  5
18B
330
1F
100
AcDbEntity
  8
0
  6
Continuous
 62
     7
370
    25
100
AcDbLine
 10
90.6552072292
 20
21.0063565496
 30
0.0
 11
91.6755357095
 21
21.0063565496
 31
0.0
  0
LINE
  5
18C
330
1F
100
AcDbEntity
  8
0
  6
Continuous
 62
     7
370
    25
100
AcDbLine
 10
91.6755357095
 20
27.0063565496
 30
0.0
 11
90.6552072292
 21
27.0063565496
 31
0.0
  0
LINE
  5
18D
330
1F
100
AcDbEntity
  8
0
  6
Continuous
 62
     7
370
    25
100
AcDbLine
 10
90.6552072292
 20
27.0063565496
 30
0.0
 11
90.335066505
 21
26.4518565496
 31
0.0
  0
LINE
  5
18E
330
1F
100
AcDbEntity
  8
0
  6
Continuous
 62
     7
370
    25
100
AcDbLine
 10
90.335066505
 20
21.5608565496
 30
0.0
 11
90.6552072292
 21
21.0063565496
 31
0.0
  0
LINE
  5
18F
330
1F
100
AcDbEntity
  8
0
  6
Continuous
 62
     7
370
    25
100
AcDbLine
 10
90.6552072292
 20
21.0063565496
 30
0.0
 11
90.6552072292
 21
27.0063565496
 31
0.0
  0
LINE
  5
190
330
1F
100
AcDbEntity
  8
0
  6
Continuous
 62
     7
370
    25
100
AcDbLine
 10
90.335066505
 20
21.5608565496
 30
0.0
 11
90.335066505
 21
26.4518565496
 31
0.0
  0
ARC
  5
191
330
1F
100
AcDbEntity
  8
0
  6
Continuous
 62
     7
370
    25
100
AcDbCircle
 10
106.6957308485
 20
23.7498476994
 30
0.0
 40
10.30794147319176
100
AcDbArc
 50
174.1225395615
 51
286.9173740639
  0
ARC
  5
192
330
1F
100
AcDbEntity
  8
0
  6
Continuous
 62
     7
370
    25
100
AcDbCircle
 10
106.3400797981
 20
23.9886909653
 30
0.0
 40
10.64338511039684
100
AcDbArc
 50
334.8632180981
 51
288.3750881285
  0
CIRCLE
  5
193
330
1F
100
AcDbEntity
  8
0
  6
Continuous
 62
     7
370
    25
100
AcDbCircle
 10
106.3724741662
 20
24.0063565496
 30
0.0
 40
7.649999999999991
  0
ARC
  5
194
330
1F
100
AcDbEntity
  8
0
  6
Continuous
 62
     7
370
    25
100
AcDbCircle
 10
106.3724741662
 20
24.0063565496
 30
0.0
 40
10.65
100
AcDbArc
 50
288.1797359459
 51
333.1797369068
  0
ARC
  5
195
330
1F
100
AcDbEntity
  8
0
  6
Continuous
 62
     7
370
    25
100
AcDbCircle
 10
106.3724741662
 20
24.0063565496
 30
0.0
 40
9.96259233875001
100
AcDbArc
 50
85.3997243503
 51
175.3997243503
  0
ARC
  5
196
330
1F
100
AcDbEntity
  8
0
  6
Continuous
 62
     7
370
    25
100
AcDbCircle
 10
106.5971188743
 20
23.6582886023
 30
0.0
 40
10.29460245713385
100
AcDbArc
 50
334.3445154614
 51
86.8014936112
  0
LINE
  5
197
330
1F
100
AcDbEntity
  8
0
  6
Continuous
 62
     7
370
    25
100
AcDbLine
 10
100.232166851
 20
15.3118535284
 30
0.0
 11
100.7462346405
 21
14.9637944791
 31
0.0
  0
CIRCLE
  5
198
330
1F
100
AcDbEntity
  8
0
  6
Continuous
 62
     7
370
    25
100
AcDbCircle
 10
106.3724741662
 20
24.0063565496
 30
0.0
 40
15.0
  0
CIRCLE
  5
199
330
1F
100
AcDbEntity
  8
0
  6
Continuous
 62
     7
370
    25
100
AcDbCircle
 10
106.3724741662
 20
24.0063565496
 30
0.0
 40
13.99999999999998
  0
ENDSEC
  0
SECTION
  2
OBJECTS
  0
DICTIONARY
  5
C
330
0
100
AcDbDictionary
281
     1
  3
ACAD_DETAILVIEWSTYLE
350
1A1
  3
ACAD_GROUP
350
D
  3
ACAD_LAYOUT
350
1A
  3
ACAD_MATERIAL
350
43
  3
ACAD_MLEADERSTYLE
350
6B
  3
ACAD_MLINESTYLE
350
17
  3
ACAD_PLOTSETTINGS
350
19
  3
ACAD_PLOTSTYLENAME
350
E
  3
ACAD_SCALELIST
350
47
  3
ACAD_SECTIONVIEWSTYLE
350
1A2
  3
ACAD_TABLESTYLE
350
69
  3
ACAD_VISUALSTYLE
350
2A
  3
ACDB_RECOMPOSE_DATA
350
19E
  3
AcDbVariableDictionary
350
19A
  0
SUN
  5
6D
330
29
100
AcDbSun
 90
        1
290
     0
 63
     7
421
 16777215
 40
1.0
291
     1
 91
  2455826
 92
 54000000
292
     0
 70
     2
 71
   256
280
     1
  0
DICTIONARY
  5
1A1
102
{ACAD_REACTORS
330
C
102
}
330
C
100
AcDbDictionary
281
     1
  0
DICTIONARY
  5
D
102
{ACAD_REACTORS
330
C
102
}
330
C
100
AcDbDictionary
281
     1
  0
DICTIONARY
  5
1A
102
{ACAD_REACTORS
330
C
102
}
330
C
100
AcDbDictionary
281
     1
  3
Layout1
350
1E
  3
Layout2
350
26
  3
Model
350
22
  0
DICTIONARY
  5
43
102
{ACAD_REACTORS
330
C
102
}
330
C
100
AcDbDictionary
281
     1
  3
ByBlock
350
45
  3
ByLayer
350
44
  3
Global
350
46
  0
DICTIONARY
  5
6B
102
{ACAD_REACTORS
330
C
102
}
330
C
100
AcDbDictionary
281
     1
  3
Standard
350
6C
  0
DICTIONARY
  5
17
102
{ACAD_REACTORS
330
C
102
}
330
C
100
AcDbDictionary
281
     1
  3
Standard
350
18
  0
DICTIONARY
  5
19
102
{ACAD_REACTORS
330
C
102
}
330
C
100
AcDbDictionary
281
     1
  0
ACDBDICTIONARYWDFLT
  5
E
102
{ACAD_REACTORS
330
C
102
}
330
C
100
AcDbDictionary
281
     1
  3
Normal
350
F
100
AcDbDictionaryWithDefault
340
F
  0
DICTIONARY
  5
47
102
{ACAD_REACTORS
330
C
102
}
330
C
100
AcDbDictionary
281
     1
  3
A0
350
48
  3
A1
350
49
  3
A2
350
4A
  3
A3
350
4B
  3
A4
350
4C
  3
A5
350
4D
  3
A6
350
4E
  3
A7
350
4F
  3
A8
350
50
  3
A9
350
51
  3
B0
350
52
  3
B1
350
53
  3
B2
350
54
  3
B3
350
55
  3
B4
350
56
  3
B5
350
57
  3
B6
350
58
  3
B7
350
59
  3
B8
350
5A
  3
B9
350
5B
  3
C0
350
5C
  3
C1
350
5D
  3
C2
350
5E
  3
C3
350
5F
  3
C4
350
60
  3
C5
350
61
  3
C6
350
62
  3
C7
350
63
  3
C8
350
64
  3
C9
350
65
  3
D0
350
66
  3
D1
350
67
  3
D2
350
68
  0
DICTIONARY
  5
1A2
102
{ACAD_REACTORS
330
C
102
}
330
C
100
AcDbDictionary
281
     1
  0
DICTIONARY
  5
69
102
{ACAD_REACTORS
330
C
102
}
330
C
100
AcDbDictionary
281
     1
  3
Standard
350
6A
  0
DICTIONARY
  5
2A
102
{ACAD_REACTORS
330
C
102
}
330
C
100
AcDbDictionary
281
     1
  3
2dWireframe
350
2F
  3
Basic
350
32
  3
Brighten
350
36
  3
ColorChange
350
3A
  3
Conceptual
350
34
  3
Dim
350
35
  3
EdgeColorOff
350
3D
  3
Facepattern
350
39
  3
Flat
350
2B
  3
FlatWithEdges
350
2C
  3
Gouraud
350
2D
  3
GouraudWithEdges
350
2E
  3
Hidden
350
31
  3
JitterOff
350
3B
  3
Linepattern
350
38
  3
OverhangOff
350
3C
  3
Realistic
350
33
  3
Shaded
350
42
  3
Shaded with edges
350
41
  3
Shades of Gray
350
3E
  3
Sketchy
350
3F
  3
Thicken
350
37
  3
Wireframe
350
30
  3
X-Ray
350
40
  0
XRECORD
  5
19E
102
{ACAD_REACTORS
330
C
102
}
330
C
100
AcDbXrecord
280
     1
 90
        1
330
6A
  0
DICTIONARY
  5
19A
102
{ACAD_REACTORS
330
C
102
}
330
C
100
AcDbDictionary
281
     1
  3
CANNOSCALE
350
19B
  3
CENTEREXE
350
1A3
  3
CENTERLTYPEFILE
350
1A4
  3
CMLEADERSTYLE
350
1A0
  3
CTABLESTYLE
350
19F
  0
LAYOUT
  5
1E
102
{ACAD_REACTORS
330
1A
102
}
330
1A
100
AcDbPlotSettings
  1

  2
none_device
  4

  6

 40
0.0
 41
0.0
 42
0.0
 43
0.0
 44
0.0
 45
0.0
 46
0.0
 47
0.0
 48
0.0
 49
0.0
140
0.0
141
0.0
142
1.0
143
1.0
 70
   688
 72
     1
 73
     0
 74
     5
  7

 75
    16
 76
     0
 77
     2
 78
   300
147
1.0
148
0.0
149
0.0
100
AcDbLayout
  1
Layout1
 70
     1
 71
     1
 10
0.0
 20
0.0
 11
420.0
 21
297.0
 12
0.0
 22
0.0
 32
0.0
 14
1.0000000000E+20
 24
1.0000000000E+20
 34
1.0000000000E+20
 15
-1.0000000000E+20
 25
-1.0000000000E+20
 35
-1.0000000000E+20
146
0.0
 13
0.0
 23
0.0
 33
0.0
 16
1.0
 26
0.0
 36
0.0
 17
0.0
 27
1.0
 37
0.0
 76
     0
330
1B
  0
LAYOUT
  5
26
102
{ACAD_REACTORS
330
1A
102
}
330
1A
100
AcDbPlotSettings
  1

  2
none_device
  4

  6

 40
0.0
 41
0.0
 42
0.0
 43
0.0
 44
0.0
 45
0.0
 46
0.0
 47
0.0
 48
0.0
 49
0.0
140
0.0
141
0.0
142
1.0
143
1.0
 70
   688
 72
     1
 73
     0
 74
     5
  7

 75
    16
 76
     0
 77
     2
 78
   300
147
1.0
148
0.0
149
0.0
100
AcDbLayout
  1
Layout2
 70
     1
 71
     2
 10
0.0
 20
0.0
 11
0.0
 21
0.0
 12
0.0
 22
0.0
 32
0.0
 14
0.0
 24
0.0
 34
0.0
 15
0.0
 25
0.0
 35
0.0
146
0.0
 13
0.0
 23
0.0
 33
0.0
 16
1.0
 26
0.0
 36
0.0
 17
0.0
 27
1.0
 37
0.0
 76
     0
330
23
  0
LAYOUT
  5
22
102
{ACAD_REACTORS
330
1A
102
}
330
1A
100
AcDbPlotSettings
  1

  2
none_device
  4
Letter_(8.50_x_11.00_Inches)
  6

 40
6.35
 41
6.35
 42
6.35000508
 43
6.35000508
 44
215.9
 45
279.4
 46
0.0
 47
0.0
 48
0.0
 49
0.0
140
0.0
141
0.0
142
1.0
143
1.0
 70
  1712
 72
     1
 73
     0
 74
     0
  7

 75
     0
 76
     0
 77
     2
 78
   300
147
1.0
148
0.0
149
0.0
100
AcDbLayout
  1
Model
 70
     1
 71
     0
 10
0.0
 20
0.0
 11
210.0
 21
1020.0
 12
0.0
 22
0.0
 32
0.0
 14
0.0
 24
0.0
 34
0.0
 15
210.0
 25
1020.0
 35
0.0
146
0.0
 13
0.0
 23
0.0
 33
0.0
 16
1.0
 26
0.0
 36
0.0
 17
0.0
 27
1.0
 37
0.0
 76
     0
330
1F
331
29
  0
MATERIAL
  5
45
102
{ACAD_REACTORS
330
43
102
}
330
43
100
AcDbMaterial
  1
ByBlock
 72
     1
 94
      127
  0
MATERIAL
  5
44
102
{ACAD_REACTORS
330
43
102
}
330
43
100
AcDbMaterial
  1
ByLayer
 72
     1
 94
      127
  0
MATERIAL
  5
46
102
{ACAD_REACTORS
330
43
102
}
330
43
100
AcDbMaterial
  1
Global
 72
     1
 94
      127
  0
MLEADERSTYLE
  5
6C
102
{ACAD_REACTORS
330
6B
102
}
330
6B
100
AcDbMLeaderStyle
179
     2
170
     2
171
     1
172
     0
 90
        2
 40
0.0
 41
0.0
173
     1
 91
-1056964608
340
14
 92
       -2
290
     1
 42
2.0
291
     1
 43
8.0
  3
Standard
341
0
 44
4.0
300

342
11
174
     1
178
     6
175
     1
176
     0
 93
-1056964608
 45
4.0
292
     0
297
     0
 46
4.0
343
0
 94
-1056964608
 47
1.0
 49
1.0
140
1.0
293
     1
141
0.0
294
     1
177
     0
142
1.0
295
     0
296
     0
143
3.75
271
     0
272
     9
273
     9
298
     0
  0
MLINESTYLE
  5
18
102
{ACAD_REACTORS
330
17
102
}
330
17
100
AcDbMlineStyle
  2
Standard
 70
     0
  3

 62
   256
 51
90.0
 52
90.0
 71
     2
 49
0.5
 62
   256
  6
BYLAYER
 49
-0.5
 62
   256
  6
BYLAYER
  0
ACDBPLACEHOLDER
  5
F
102
{ACAD_REACTORS
330
E
102
}
330
E
  0
SCALE
  5
48
102
{ACAD_REACTORS
330
47
102
}
330
47
100
AcDbScale
 70
     0
300
1:1
140
1.0
141
1.0
290
     1
  0
SCALE
  5
49
102
{ACAD_REACTORS
330
47
102
}
330
47
100
AcDbScale
 70
     0
300
1:2
140
1.0
141
2.0
290
     0
  0
SCALE
  5
4A
102
{ACAD_REACTORS
330
47
102
}
330
47
100
AcDbScale
 70
     0
300
1:4
140
1.0
141
4.0
290
     0
  0
SCALE
  5
4B
102
{ACAD_REACTORS
330
47
102
}
330
47
100
AcDbScale
 70
     0
300
1:5
140
1.0
141
5.0
290
     0
  0
SCALE
  5
4C
102
{ACAD_REACTORS
330
47
102
}
330
47
100
AcDbScale
 70
     0
300
1:8
140
1.0
141
8.0
290
     0
  0
SCALE
  5
4D
102
{ACAD_REACTORS
330
47
102
}
330
47
100
AcDbScale
 70
     0
300
1:10
140
1.0
141
10.0
290
     0
  0
SCALE
  5
4E
102
{ACAD_REACTORS
330
47
102
}
330
47
100
AcDbScale
 70
     0
300
1:16
140
1.0
141
16.0
290
     0
  0
SCALE
  5
4F
102
{ACAD_REACTORS
330
47
102
}
330
47
100
AcDbScale
 70
     0
300
1:20
140
1.0
141
20.0
290
     0
  0
SCALE
  5
50
102
{ACAD_REACTORS
330
47
102
}
330
47
100
AcDbScale
 70
     0
300
1:30
140
1.0
141
30.0
290
     0
  0
SCALE
  5
51
102
{ACAD_REACTORS
330
47
102
}
330
47
100
AcDbScale
 70
     0
300
1:40
140
1.0
141
40.0
290
     0
  0
SCALE
  5
52
102
{ACAD_REACTORS
330
47
102
}
330
47
100
AcDbScale
 70
     0
300
1:50
140
1.0
141
50.0
290
     0
  0
SCALE
  5
53
102
{ACAD_REACTORS
330
47
102
}
330
47
100
AcDbScale
 70
     0
300
1:100
140
1.0
141
100.0
290
     0
  0
SCALE
  5
54
102
{ACAD_REACTORS
330
47
102
}
330
47
100
AcDbScale
 70
     0
300
2:1
140
2.0
141
1.0
290
     0
  0
SCALE
  5
55
102
{ACAD_REACTORS
330
47
102
}
330
47
100
AcDbScale
 70
     0
300
4:1
140
4.0
141
1.0
290
     0
  0
SCALE
  5
56
102
{ACAD_REACTORS
330
47
102
}
330
47
100
AcDbScale
 70
     0
300
8:1
140
8.0
141
1.0
290
     0
  0
SCALE
  5
57
102
{ACAD_REACTORS
330
47
102
}
330
47
100
AcDbScale
 70
     0
300
10:1
140
10.0
141
1.0
290
     0
  0
SCALE
  5
58
102
{ACAD_REACTORS
330
47
102
}
330
47
100
AcDbScale
 70
     0
300
100:1
140
100.0
141
1.0
290
     0
  0
SCALE
  5
59
102
{ACAD_REACTORS
330
47
102
}
330
47
100
AcDbScale
 70
     0
300
1/128" = 1'-0"
140
0.0078125
141
12.0
290
     0
  0
SCALE
  5
5A
102
{ACAD_REACTORS
330
47
102
}
330
47
100
AcDbScale
 70
     0
300
1/64" = 1'-0"
140
0.015625
141
12.0
290
     0
  0
SCALE
  5
5B
102
{ACAD_REACTORS
330
47
102
}
330
47
100
AcDbScale
 70
     0
300
1/32" = 1'-0"
140
0.03125
141
12.0
290
     0
  0
SCALE
  5
5C
102
{ACAD_REACTORS
330
47
102
}
330
47
100
AcDbScale
 70
     0
300
1/16" = 1'-0"
140
0.0625
141
12.0
290
     0
  0
SCALE
  5
5D
102
{ACAD_REACTORS
330
47
102
}
330
47
100
AcDbScale
 70
     0
300
3/32" = 1'-0"
140
0.09375
141
12.0
290
     0
  0
SCALE
  5
5E
102
{ACAD_REACTORS
330
47
102
}
330
47
100
AcDbScale
 70
     0
300
1/8" = 1'-0"
140
0.125
141
12.0
290
     0
  0
SCALE
  5
5F
102
{ACAD_REACTORS
330
47
102
}
330
47
100
AcDbScale
 70
     0
300
3/16" = 1'-0"
140
0.1875
141
12.0
290
     0
  0
SCALE
  5
60
102
{ACAD_REACTORS
330
47
102
}
330
47
100
AcDbScale
 70
     0
300
1/4" = 1'-0"
140
0.25
141
12.0
290
     0
  0
SCALE
  5
61
102
{ACAD_REACTORS
330
47
102
}
330
47
100
AcDbScale
 70
     0
300
3/8" = 1'-0"
140
0.375
141
12.0
290
     0
  0
SCALE
  5
62
102
{ACAD_REACTORS
330
47
102
}
330
47
100
AcDbScale
 70
     0
300
1/2" = 1'-0"
140
0.5
141
12.0
290
     0
  0
SCALE
  5
63
102
{ACAD_REACTORS
330
47
102
}
330
47
100
AcDbScale
 70
     0
300
3/4" = 1'-0"
140
0.75
141
12.0
290
     0
  0
SCALE
  5
64
102
{ACAD_REACTORS
330
47
102
}
330
47
100
AcDbScale
 70
     0
300
1" = 1'-0"
140
1.0
141
12.0
290
     0
  0
SCALE
  5
65
102
{ACAD_REACTORS
330
47
102
}
330
47
100
AcDbScale
 70
     0
300
1-1/2" = 1'-0"
140
1.5
141
12.0
290
     0
  0
SCALE
  5
66
102
{ACAD_REACTORS
330
47
102
}
330
47
100
AcDbScale
 70
     0
300
3" = 1'-0"
140
3.0
141
12.0
290
     0
  0
SCALE
  5
67
102
{ACAD_REACTORS
330
47
102
}
330
47
100
AcDbScale
 70
     0
300
6" = 1'-0"
140
6.0
141
12.0
290
     0
  0
SCALE
  5
68
102
{ACAD_REACTORS
330
47
102
}
330
47
100
AcDbScale
 70
     0
300
1'-0" = 1'-0"
140
12.0
141
12.0
290
     0
  0
TABLESTYLE
  5
6A
102
{ACAD_REACTORS
330
69
102
}
102
{ACAD_XDICTIONARY
360
19C
102
}
330
69
100
AcDbTableStyle
  3
Standard
 70
     0
 71
     0
 40
0.06
 41
0.06
280
     0
281
     0
  7
Standard
140
4.5
170
     2
 62
     0
 63
   257
283
     0
 90
        4
 91
        0
  1

274
    -2
284
     1
 64
     0
275
    -2
285
     1
 65
     0
276
    -2
286
     1
 66
     0
277
    -2
287
     1
 67
     0
278
    -2
288
     1
 68
     0
279
    -2
289
     1
 69
     0
  7
Standard
140
6.0
170
     5
 62
     0
 63
   257
283
     0
 90
        4
 91
        0
  1

274
    -2
284
     1
 64
     0
275
    -2
285
     1
 65
     0
276
    -2
286
     1
 66
     0
277
    -2
287
     1
 67
     0
278
    -2
288
     1
 68
     0
279
    -2
289
     1
 69
     0
  7
Standard
140
4.5
170
     5
 62
     0
 63
   257
283
     0
 90
        4
 91
        0
  1

274
    -2
284
     1
 64
     0
275
    -2
285
     1
 65
     0
276
    -2
286
     1
 66
     0
277
    -2
287
     1
 67
     0
278
    -2
288
     1
 68
     0
279
    -2
289
     1
 69
     0
  0
VISUALSTYLE
  5
2F
102
{ACAD_REACTORS
330
2A
102
}
330
2A
100
AcDbVisualStyle
  2
2dWireframe
 70
     4
177
     3
291
     0
 70
    58
 90
        0
176
     1
 90
        2
176
     1
 90
        0
176
     1
 90
        0
176
     1
 40
0.6
176
     1
 40
30.0
176
     1
 62
     7
420
 16777215
176
     1
 90
        1
176
     1
 90
        4
176
     1
 62
     7
176
     1
 62
   257
176
     1
 90
        1
176
     1
 90
        1
176
     1
 40
1.0
176
     1
 90
        0
176
     1
 62
   257
176
     1
 40
1.0
176
     1
 90
        1
176
     1
 90
        6
176
     1
 90
        2
176
     1
 62
     7
176
     1
 90
        5
176
     1
 90
        0
176
     1
 90
        0
176
     1
290
     0
176
     1
 90
        1
176
     1
 40
0.0
176
     1
 90
        0
176
     1
290
     1
176
     1
290
     1
176
     1
290
     0
176
     1
290
     0
176
     1
290
     0
176
     1
290
     0
176
     1
290
     0
176
     1
290
     0
176
     1
290
     0
176
     1
 90
       50
176
     1
 40
0.0
176
     1
 40
1.0
176
     1
 90
        0
176
     1
 62
    18
420
        0
176
     1
 90
       50
176
     1
 90
        3
176
     1
 62
     5
420
      255
176
     1
290
     0
176
     1
 90
       50
176
     1
 90
       50
176
     1
 90
       50
176
     1
290
     0
176
     1
 90
       50
176
     1
 62
   256
176
     0
 40
1.0
176
     0
 90
        2
176
     1
  1
strokes_ogs.tif
176
     1
290
     0
176
     1
 40
1.0
176
     1
 40
1.0
176
     1
  0
VISUALSTYLE
  5
32
102
{ACAD_REACTORS
330
2A
102
}
330
2A
100
AcDbVisualStyle
  2
Basic
 70
     7
177
     3
291
     1
 70
    58
 90
        1
176
     1
 90
        0
176
     1
 90
        1
176
     1
 90
        0
176
     1
 40
0.6
176
     1
 40
30.0
176
     1
 62
     7
420
 16777215
176
     1
 90
        0
176
     1
 90
        4
176
     1
 62
     7
176
     1
 62
   257
176
     1
 90
        1
176
     1
 90
        1
176
     1
 40
1.0
176
     1
 90
        8
176
     1
 62
     7
176
     1
 40
1.0
176
     1
 90
        1
176
     1
 90
        6
176
     1
 90
        2
176
     1
 62
     7
176
     1
 90
        5
176
     1
 90
        0
176
     1
 90
        0
176
     1
290
     0
176
     1
 90
        1
176
     1
 40
0.0
176
     1
 90
        0
176
     1
290
     0
176
     1
290
     1
176
     1
290
     1
176
     1
290
     0
176
     1
290
     0
176
     1
290
     0
176
     1
290
     0
176
     1
290
     0
176
     1
290
     0
176
     1
 90
       50
176
     1
 40
0.0
176
     1
 40
1.0
176
     1
 90
        0
176
     1
 62
    18
420
        0
176
     1
 90
       50
176
     1
 90
        3
176
     1
 62
     5
420
      255
176
     1
290
     0
176
     1
 90
       50
176
     1
 90
       50
176
     1
 90
       50
176
     1
290
     0
176
     1
 90
       50
176
     1
 62
   256
176
     0
 40
1.0
176
     0
 90
        2
176
     1
  1
strokes_ogs.tif
176
     1
290
     0
176
     1
 40
1.0
176
     1
 40
1.0
176
     1
  0
VISUALSTYLE
  5
36
102
{ACAD_REACTORS
330
2A
102
}
330
2A
100
AcDbVisualStyle
  2
Brighten
 70
    12
177
     3
291
     1
 70
    58
 90
        2
176
     1
 90
        2
176
     1
 90
        0
176
     1
 90
        0
176
     1
 40
0.6
176
     1
 40
30.0
176
     1
 62
     7
420
 16777215
176
     1
 90
        1
176
     1
 90
        4
176
     1
 62
     7
176
     1
 62
   257
176
     1
 90
        1
176
     1
 90
        1
176
     1
 40
1.0
176
     1
 90
        8
176
     1
 62
     7
176
     1
 40
1.0
176
     1
 90
        1
176
     1
 90
        6
176
     1
 90
        2
176
     1
 62
     7
176
     1
 90
        5
176
     1
 90
        0
176
     1
 90
        0
176
     1
290
     0
176
     1
 90
        1
176
     1
 40
50.0
176
     1
 90
        0
176
     1
290
     0
176
     1
290
     1
176
     1
290
     1
176
     1
290
     0
176
     1
290
     0
176
     1
290
     0
176
     1
290
     0
176
     1
290
     0
176
     1
290
     0
176
     1
 90
       50
176
     1
 40
0.0
176
     1
 40
1.0
176
     1
 90
        0
176
     1
 62
    18
420
        0
176
     1
 90
       50
176
     1
 90
        3
176
     1
 62
     5
420
      255
176
     1
290
     0
176
     1
 90
       50
176
     1
 90
       50
176
     1
 90
       50
176
     1
290
     0
176
     1
 90
       50
176
     1
 62
   256
176
     0
 40
1.0
176
     0
 90
        2
176
     1
  1
strokes_ogs.tif
176
     1
290
     0
176
     1
 40
1.0
176
     1
 40
1.0
176
     1
  0
VISUALSTYLE
  5
3A
102
{ACAD_REACTORS
330
2A
102
}
330
2A
100
AcDbVisualStyle
  2
ColorChange
 70
    16
177
     3
291
     1
 70
    58
 90
        2
176
     1
 90
        2
176
     1
 90
        3
176
     1
 90
        0
176
     1
 40
0.6
176
     1
 40
30.0
176
     1
 62
     8
420
  8421504
176
     1
 90
        1
176
     1
 90
        4
176
     1
 62
     7
176
     1
 62
   257
176
     1
 90
        1
176
     1
 90
        1
176
     1
 40
1.0
176
     1
 90
        8
176
     1
 62
     8
420
  8421504
176
     1
 40
1.0
176
     1
 90
        1
176
     1
 90
        6
176
     1
 90
        2
176
     1
 62
     7
176
     1
 90
        5
176
     1
 90
        0
176
     1
 90
        0
176
     1
290
     0
176
     1
 90
        1
176
     1
 40
0.0
176
     1
 90
        0
176
     1
290
     0
176
     1
290
     1
176
     1
290
     1
176
     1
290
     0
176
     1
290
     0
176
     1
290
     0
176
     1
290
     0
176
     1
290
     0
176
     1
290
     0
176
     1
 90
       50
176
     1
 40
0.0
176
     1
 40
1.0
176
     1
 90
        0
176
     1
 62
    18
420
        0
176
     1
 90
       50
176
     1
 90
        3
176
     1
 62
     5
420
      255
176
     1
290
     0
176
     1
 90
       50
176
     1
 90
       50
176
     1
 90
       50
176
     1
290
     0
176
     1
 90
       50
176
     1
 62
   256
176
     0
 40
1.0
176
     0
 90
        2
176
     1
  1
strokes_ogs.tif
176
     1
290
     0
176
     1
 40
1.0
176
     1
 40
1.0
176
     1
  0
VISUALSTYLE
  5
34
102
{ACAD_REACTORS
330
2A
102
}
330
2A
100
AcDbVisualStyle
  2
Conceptual
 70
     9
177
     3
291
     0
 70
    58
 90
        3
176
     1
 90
        2
176
     1
 90
        0
176
     1
 90
        0
176
     1
 40
0.6
176
     1
 40
30.0
176
     1
 62
     7
420
 16777215
176
     1
 90
        2
176
     1
 90
        2
176
     1
 62
     7
176
     1
 62
   257
176
     1
 90
        1
176
     1
 90
        1
176
     1
 40
179.0
176
     1
 90
        8
176
     1
 62
     7
176
     1
 40
1.0
176
     1
 90
        1
176
     1
 90
        6
176
     1
 90
        2
176
     1
 62
     7
176
     1
 90
        3
176
     1
 90
        0
176
     1
 90
        0
176
     1
290
     0
176
     1
 90
        1
176
     1
 40
0.0
176
     1
 90
        0
176
     1
290
     0
176
     1
290
     1
176
     1
290
     1
176
     1
290
     0
176
     1
290
     0
176
     1
290
     0
176
     1
290
     0
176
     1
290
     0
176
     1
290
     0
176
     1
 90
       50
176
     1
 40
0.0
176
     1
 40
1.0
176
     1
 90
        0
176
     1
 62
    18
420
        0
176
     1
 90
       50
176
     1
 90
        3
176
     1
 62
     5
420
      255
176
     1
290
     0
176
     1
 90
       50
176
     1
 90
       50
176
     1
 90
       50
176
     1
290
     0
176
     1
 90
       50
176
     1
 62
   256
176
     0
 40
1.0
176
     0
 90
        2
176
     1
  1
strokes_ogs.tif
176
     1
290
     0
176
     1
 40
1.0
176
     1
 40
1.0
176
     1
  0
VISUALSTYLE
  5
35
102
{ACAD_REACTORS
330
2A
102
}
330
2A
100
AcDbVisualStyle
  2
Dim
 70
    11
177
     3
291
     1
 70
    58
 90
        2
176
     1
 90
        2
176
     1
 90
        0
176
     1
 90
        0
176
     1
 40
0.6
176
     1
 40
30.0
176
     1
 62
     7
420
 16777215
176
     1
 90
        1
176
     1
 90
        4
176
     1
 62
     7
176
     1
 62
   257
176
     1
 90
        1
176
     1
 90
        1
176
     1
 40
1.0
176
     1
 90
        8
176
     1
 62
     7
176
     1
 40
1.0
176
     1
 90
        1
176
     1
 90
        6
176
     1
 90
        2
176
     1
 62
     7
176
     1
 90
        5
176
     1
 90
        0
176
     1
 90
        0
176
     1
290
     0
176
     1
 90
        1
176
     1
 40
-50.0
176
     1
 90
        0
176
     1
290
     0
176
     1
290
     1
176
     1
290
     1
176
     1
290
     0
176
     1
290
     0
176
     1
290
     0
176
     1
290
     0
176
     1
290
     0
176
     1
290
     0
176
     1
 90
       50
176
     1
 40
0.0
176
     1
 40
1.0
176
     1
 90
        0
176
     1
 62
    18
420
        0
176
     1
 90
       50
176
     1
 90
        3
176
     1
 62
     5
420
      255
176
     1
290
     0
176
     1
 90
       50
176
     1
 90
       50
176
     1
 90
       50
176
     1
290
     0
176
     1
 90
       50
176
     1
 62
   256
176
     0
 40
1.0
176
     0
 90
        2
176
     1
  1
strokes_ogs.tif
176
     1
290
     0
176
     1
 40
1.0
176
     1
 40
1.0
176
     1
  0
VISUALSTYLE
  5
3D
102
{ACAD_REACTORS
330
2A
102
}
330
2A
100
AcDbVisualStyle
  2
EdgeColorOff
 70
    22
177
     3
291
     1
 70
    58
 90
        2
176
     0
 90
        2
176
     0
 90
        0
176
     0
 90
        0
176
     0
 40
0.6
176
     0
 40
30.0
176
     0
 62
     7
420
 16777215
176
     0
 90
        1
176
     0
 90
        4
176
     0
 62
     7
176
     0
 62
   257
176
     0
 90
        1
176
     0
 90
        1
176
     0
 40
1.0
176
     0
 90
        8
176
     2
 62
     7
176
     0
 40
1.0
176
     0
 90
        1
176
     0
 90
        6
176
     0
 90
        2
176
     0
 62
     7
176
     0
 90
        5
176
     0
 90
        0
176
     0
 90
        0
176
     0
290
     0
176
     0
 90
        1
176
     0
 40
0.0
176
     0
 90
        0
176
     0
290
     0
176
     0
290
     1
176
     0
290
     1
176
     0
290
     0
176
     0
290
     0
176
     0
290
     0
176
     0
290
     0
176
     0
290
     0
176
     0
290
     0
176
     0
 90
       50
176
     0
 40
0.0
176
     0
 40
1.0
176
     0
 90
        0
176
     0
 62
    18
420
        0
176
     0
 90
       50
176
     0
 90
        3
176
     0
 62
     5
420
      255
176
     0
290
     0
176
     0
 90
       50
176
     0
 90
       50
176
     0
 90
       50
176
     0
290
     0
176
     0
 90
       50
176
     0
 62
   256
176
     0
 40
1.0
176
     0
 90
        2
176
     0
  1
strokes_ogs.tif
176
     0
290
     0
176
     0
 40
1.0
176
     0
 40
1.0
176
     0
  0
VISUALSTYLE
  5
39
102
{ACAD_REACTORS
330
2A
102
}
330
2A
100
AcDbVisualStyle
  2
Facepattern
 70
    15
177
     3
291
     1
 70
    58
 90
        2
176
     1
 90
        2
176
     1
 90
        0
176
     1
 90
        0
176
     1
 40
0.6
176
     1
 40
30.0
176
     1
 62
     7
420
 16777215
176
     1
 90
        1
176
     1
 90
        4
176
     1
 62
     7
176
     1
 62
   257
176
     1
 90
        1
176
     1
 90
        1
176
     1
 40
1.0
176
     1
 90
        8
176
     1
 62
     7
176
     1
 40
1.0
176
     1
 90
        1
176
     1
 90
        6
176
     1
 90
        2
176
     1
 62
     7
176
     1
 90
        5
176
     1
 90
        0
176
     1
 90
        0
176
     1
290
     0
176
     1
 90
        1
176
     1
 40
0.0
176
     1
 90
        0
176
     1
290
     0
176
     1
290
     1
176
     1
290
     1
176
     1
290
     0
176
     1
290
     0
176
     1
290
     0
176
     1
290
     0
176
     1
290
     0
176
     1
290
     0
176
     1
 90
       50
176
     1
 40
0.0
176
     1
 40
1.0
176
     1
 90
        0
176
     1
 62
    18
420
        0
176
     1
 90
       50
176
     1
 90
        3
176
     1
 62
     5
420
      255
176
     1
290
     0
176
     1
 90
       50
176
     1
 90
       50
176
     1
 90
       50
176
     1
290
     0
176
     1
 90
       50
176
     1
 62
   256
176
     0
 40
1.0
176
     0
 90
        2
176
     1
  1
strokes_ogs.tif
176
     1
290
     0
176
     1
 40
1.0
176
     1
 40
1.0
176
     1
  0
VISUALSTYLE
  5
2B
102
{ACAD_REACTORS
330
2A
102
}
330
2A
100
AcDbVisualStyle
  2
Flat
 70
     0
177
     3
291
     1
 70
    58
 90
        2
176
     1
 90
        1
176
     1
 90
        1
176
     1
 90
        2
176
     1
 40
0.6
176
     1
 40
30.0
176
     1
 62
     7
420
 16777215
176
     1
 90
        0
176
     1
 90
        0
176
     1
 62
     7
176
     1
 62
   257
176
     1
 90
        1
176
     1
 90
        1
176
     1
 40
1.0
176
     1
 90
        8
176
     1
 62
     7
176
     1
 40
1.0
176
     1
 90
        1
176
     1
 90
        6
176
     1
 90
        2
176
     1
 62
     7
176
     1
 90
        5
176
     1
 90
        0
176
     1
 90
        0
176
     1
290
     0
176
     1
 90
       13
176
     1
 40
0.0
176
     1
 90
        0
176
     1
290
     0
176
     1
290
     1
176
     1
290
     1
176
     1
290
     0
176
     1
290
     0
176
     1
290
     0
176
     1
290
     0
176
     1
290
     0
176
     1
290
     0
176
     1
 90
       50
176
     1
 40
0.0
176
     1
 40
1.0
176
     1
 90
        0
176
     1
 62
    18
420
        0
176
     1
 90
       50
176
     1
 90
        3
176
     1
 62
     5
420
      255
176
     1
290
     0
176
     1
 90
       50
176
     1
 90
       50
176
     1
 90
       50
176
     1
290
     0
176
     1
 90
       50
176
     1
 62
   256
176
     0
 40
1.0
176
     0
 90
        2
176
     1
  1
strokes_ogs.tif
176
     1
290
     0
176
     1
 40
1.0
176
     1
 40
1.0
176
     1
  0
VISUALSTYLE
  5
2C
102
{ACAD_REACTORS
330
2A
102
}
330
2A
100
AcDbVisualStyle
  2
FlatWithEdges
 70
     1
177
     3
291
     1
 70
    58
 90
        2
176
     1
 90
        1
176
     1
 90
        1
176
     1
 90
        2
176
     1
 40
0.6
176
     1
 40
30.0
176
     1
 62
     7
420
 16777215
176
     1
 90
        1
176
     1
 90
        0
176
     1
 62
     7
176
     1
 62
   257
176
     1
 90
        1
176
     1
 90
        1
176
     1
 40
1.0
176
     1
 90
        0
176
     1
 62
   257
176
     1
 40
1.0
176
     1
 90
        1
176
     1
 90
        6
176
     1
 90
        2
176
     1
 62
     7
176
     1
 90
        5
176
     1
 90
        0
176
     1
 90
        0
176
     1
290
     0
176
     1
 90
       13
176
     1
 40
0.0
176
     1
 90
        0
176
     1
290
     0
176
     1
290
     1
176
     1
290
     1
176
     1
290
     0
176
     1
290
     0
176
     1
290
     0
176
     1
290
     0
176
     1
290
     0
176
     1
290
     0
176
     1
 90
       50
176
     1
 40
0.0
176
     1
 40
1.0
176
     1
 90
        0
176
     1
 62
    18
420
        0
176
     1
 90
       50
176
     1
 90
        3
176
     1
 62
     5
420
      255
176
     1
290
     0
176
     1
 90
       50
176
     1
 90
       50
176
     1
 90
       50
176
     1
290
     0
176
     1
 90
       50
176
     1
 62
   256
176
     0
 40
1.0
176
     0
 90
        2
176
     1
  1
strokes_ogs.tif
176
     1
290
     0
176
     1
 40
1.0
176
     1
 40
1.0
176
     1
  0
VISUALSTYLE
  5
2D
102
{ACAD_REACTORS
330
2A
102
}
330
2A
100
AcDbVisualStyle
  2
Gouraud
 70
     2
177
     3
291
     1
 70
    58
 90
        2
176
     1
 90
        2
176
     1
 90
        1
176
     1
 90
        2
176
     1
 40
0.6
176
     1
 40
30.0
176
     1
 62
     7
420
 16777215
176
     1
 90
        0
176
     1
 90
        0
176
     1
 62
     7
176
     1
 62
   257
176
     1
 90
        1
176
     1
 90
        1
176
     1
 40
1.0
176
     1
 90
        0
176
     1
 62
     7
176
     1
 40
1.0
176
     1
 90
        1
176
     1
 90
        6
176
     1
 90
        2
176
     1
 62
     7
176
     1
 90
        5
176
     1
 90
        0
176
     1
 90
        0
176
     1
290
     0
176
     1
 90
       13
176
     1
 40
0.0
176
     1
 90
        0
176
     1
290
     0
176
     1
290
     1
176
     1
290
     1
176
     1
290
     0
176
     1
290
     0
176
     1
290
     0
176
     1
290
     0
176
     1
290
     0
176
     1
290
     0
176
     1
 90
       50
176
     1
 40
0.0
176
     1
 40
1.0
176
     1
 90
        0
176
     1
 62
    18
420
        0
176
     1
 90
       50
176
     1
 90
        3
176
     1
 62
     5
420
      255
176
     1
290
     0
176
     1
 90
       50
176
     1
 90
       50
176
     1
 90
       50
176
     1
290
     0
176
     1
 90
       50
176
     1
 62
   256
176
     0
 40
1.0
176
     0
 90
        2
176
     1
  1
strokes_ogs.tif
176
     1
290
     0
176
     1
 40
1.0
176
     1
 40
1.0
176
     1
  0
VISUALSTYLE
  5
2E
102
{ACAD_REACTORS
330
2A
102
}
330
2A
100
AcDbVisualStyle
  2
GouraudWithEdges
 70
     3
177
     3
291
     1
 70
    58
 90
        2
176
     1
 90
        2
176
     1
 90
        1
176
     1
 90
        2
176
     1
 40
0.6
176
     1
 40
30.0
176
     1
 62
     7
420
 16777215
176
     1
 90
        1
176
     1
 90
        0
176
     1
 62
     7
176
     1
 62
   257
176
     1
 90
        1
176
     1
 90
        1
176
     1
 40
1.0
176
     1
 90
        0
176
     1
 62
   257
176
     1
 40
1.0
176
     1
 90
        1
176
     1
 90
        6
176
     1
 90
        2
176
     1
 62
     7
176
     1
 90
        5
176
     1
 90
        0
176
     1
 90
        0
176
     1
290
     0
176
     1
 90
       13
176
     1
 40
0.0
176
     1
 90
        0
176
     1
290
     0
176
     1
290
     1
176
     1
290
     1
176
     1
290
     0
176
     1
290
     0
176
     1
290
     0
176
     1
290
     0
176
     1
290
     0
176
     1
290
     0
176
     1
 90
       50
176
     1
 40
0.0
176
     1
 40
1.0
176
     1
 90
        0
176
     1
 62
    18
420
        0
176
     1
 90
       50
176
     1
 90
        3
176
     1
 62
     5
420
      255
176
     1
290
     0
176
     1
 90
       50
176
     1
 90
       50
176
     1
 90
       50
176
     1
290
     0
176
     1
 90
       50
176
     1
 62
   256
176
     0
 40
1.0
176
     0
 90
        2
176
     1
  1
strokes_ogs.tif
176
     1
290
     0
176
     1
 40
1.0
176
     1
 40
1.0
176
     1
  0
VISUALSTYLE
  5
31
102
{ACAD_REACTORS
330
2A
102
}
330
2A
100
AcDbVisualStyle
  2
Hidden
 70
     6
177
     3
291
     0
 70
    58
 90
        1
176
     1
 90
        2
176
     1
 90
        2
176
     1
 90
        0
176
     1
 40
0.6
176
     1
 40
30.0
176
     1
 62
     7
420
 16777215
176
     1
 90
        2
176
     1
 90
        2
176
     1
 62
     7
176
     1
 62
   257
176
     1
 90
        2
176
     1
 90
        1
176
     1
 40
40.0
176
     1
 90
        0
176
     1
 62
   257
176
     1
 40
1.0
176
     1
 90
        1
176
     1
 90
        6
176
     1
 90
        2
176
     1
 62
     7
176
     1
 90
        3
176
     1
 90
        0
176
     1
 90
        0
176
     1
290
     0
176
     1
 90
        1
176
     1
 40
0.0
176
     1
 90
        0
176
     1
290
     0
176
     1
290
     1
176
     1
290
     1
176
     1
290
     0
176
     1
290
     0
176
     1
290
     0
176
     1
290
     0
176
     1
290
     0
176
     1
290
     0
176
     1
 90
       50
176
     1
 40
0.0
176
     1
 40
1.0
176
     1
 90
        0
176
     1
 62
    18
420
        0
176
     1
 90
       50
176
     1
 90
        3
176
     1
 62
     5
420
      255
176
     1
290
     0
176
     1
 90
       50
176
     1
 90
       50
176
     1
 90
       50
176
     1
290
     0
176
     1
 90
       50
176
     1
 62
   256
176
     0
 40
1.0
176
     0
 90
        2
176
     1
  1
strokes_ogs.tif
176
     1
290
     0
176
     1
 40
1.0
176
     1
 40
1.0
176
     1
  0
VISUALSTYLE
  5
3B
102
{ACAD_REACTORS
330
2A
102
}
330
2A
100
AcDbVisualStyle
  2
JitterOff
 70
    20
177
     3
291
     1
 70
    58
 90
        2
176
     0
 90
        2
176
     0
 90
        0
176
     0
 90
        0
176
     0
 40
0.6
176
     0
 40
30.0
176
     0
 62
     7
420
 16777215
176
     0
 90
        1
176
     0
 90
        4
176
     0
 62
     7
176
     0
 62
   257
176
     0
 90
        1
176
     0
 90
        1
176
     0
 40
1.0
176
     0
 90
       10
176
     2
 62
     7
176
     0
 40
1.0
176
     0
 90
        1
176
     0
 90
        6
176
     0
 90
        2
176
     0
 62
     7
176
     0
 90
        5
176
     0
 90
        0
176
     0
 90
        0
176
     0
290
     0
176
     0
 90
        1
176
     0
 40
0.0
176
     0
 90
        0
176
     0
290
     0
176
     0
290
     1
176
     0
290
     1
176
     0
290
     0
176
     0
290
     0
176
     0
290
     0
176
     0
290
     0
176
     0
290
     0
176
     0
290
     0
176
     0
 90
       50
176
     0
 40
0.0
176
     0
 40
1.0
176
     0
 90
        0
176
     0
 62
    18
420
        0
176
     0
 90
       50
176
     0
 90
        3
176
     0
 62
     5
420
      255
176
     0
290
     0
176
     0
 90
       50
176
     0
 90
       50
176
     0
 90
       50
176
     0
290
     0
176
     0
 90
       50
176
     0
 62
   256
176
     0
 40
1.0
176
     0
 90
        2
176
     0
  1
strokes_ogs.tif
176
     0
290
     0
176
     0
 40
1.0
176
     0
 40
1.0
176
     0
  0
VISUALSTYLE
  5
38
102
{ACAD_REACTORS
330
2A
102
}
330
2A
100
AcDbVisualStyle
  2
Linepattern
 70
    14
177
     3
291
     1
 70
    58
 90
        2
176
     1
 90
        2
176
     1
 90
        0
176
     1
 90
        0
176
     1
 40
0.6
176
     1
 40
30.0
176
     1
 62
     7
420
 16777215
176
     1
 90
        1
176
     1
 90
        4
176
     1
 62
     7
176
     1
 62
   257
176
     1
 90
        7
176
     1
 90
        7
176
     1
 40
1.0
176
     1
 90
        8
176
     1
 62
     7
176
     1
 40
1.0
176
     1
 90
        1
176
     1
 90
        6
176
     1
 90
        2
176
     1
 62
     7
176
     1
 90
        5
176
     1
 90
        0
176
     1
 90
        0
176
     1
290
     0
176
     1
 90
        1
176
     1
 40
0.0
176
     1
 90
        0
176
     1
290
     0
176
     1
290
     1
176
     1
290
     1
176
     1
290
     0
176
     1
290
     0
176
     1
290
     0
176
     1
290
     0
176
     1
290
     0
176
     1
290
     0
176
     1
 90
       50
176
     1
 40
0.0
176
     1
 40
1.0
176
     1
 90
        0
176
     1
 62
    18
420
        0
176
     1
 90
       50
176
     1
 90
        3
176
     1
 62
     5
420
      255
176
     1
290
     0
176
     1
 90
       50
176
     1
 90
       50
176
     1
 90
       50
176
     1
290
     0
176
     1
 90
       50
176
     1
 62
   256
176
     0
 40
1.0
176
     0
 90
        2
176
     1
  1
strokes_ogs.tif
176
     1
290
     0
176
     1
 40
1.0
176
     1
 40
1.0
176
     1
  0
VISUALSTYLE
  5
3C
102
{ACAD_REACTORS
330
2A
102
}
330
2A
100
AcDbVisualStyle
  2
OverhangOff
 70
    21
177
     3
291
     1
 70
    58
 90
        2
176
     0
 90
        2
176
     0
 90
        0
176
     0
 90
        0
176
     0
 40
0.6
176
     0
 40
30.0
176
     0
 62
     7
420
 16777215
176
     0
 90
        1
176
     0
 90
        4
176
     0
 62
     7
176
     0
 62
   257
176
     0
 90
        1
176
     0
 90
        1
176
     0
 40
1.0
176
     0
 90
        9
176
     2
 62
     7
176
     0
 40
1.0
176
     0
 90
        1
176
     0
 90
        6
176
     0
 90
        2
176
     0
 62
     7
176
     0
 90
        5
176
     0
 90
        0
176
     0
 90
        0
176
     0
290
     0
176
     0
 90
        1
176
     0
 40
0.0
176
     0
 90
        0
176
     0
290
     0
176
     0
290
     1
176
     0
290
     1
176
     0
290
     0
176
     0
290
     0
176
     0
290
     0
176
     0
290
     0
176
     0
290
     0
176
     0
290
     0
176
     0
 90
       50
176
     0
 40
0.0
176
     0
 40
1.0
176
     0
 90
        0
176
     0
 62
    18
420
        0
176
     0
 90
       50
176
     0
 90
        3
176
     0
 62
     5
420
      255
176
     0
290
     0
176
     0
 90
       50
176
     0
 90
       50
176
     0
 90
       50
176
     0
290
     0
176
     0
 90
       50
176
     0
 62
   256
176
     0
 40
1.0
176
     0
 90
        2
176
     0
  1
strokes_ogs.tif
176
     0
290
     0
176
     0
 40
1.0
176
     0
 40
1.0
176
     0
  0
VISUALSTYLE
  5
33
102
{ACAD_REACTORS
330
2A
102
}
330
2A
100
AcDbVisualStyle
  2
Realistic
 70
     8
177
     3
291
     0
 70
    58
 90
        2
176
     1
 90
        3
176
     1
 90
        0
176
     1
 90
        2
176
     1
 40
0.6
176
     1
 40
30.0
176
     1
 62
     7
420
 16777215
176
     1
 90
        0
176
     1
 90
        0
176
     1
 62
     7
176
     1
 62
   257
176
     1
 90
        1
176
     1
 90
        1
176
     1
 40
1.0
176
     1
 90
        8
176
     1
 62
   257
176
     1
 40
1.0
176
     1
 90
        1
176
     1
 90
        6
176
     1
 90
        2
176
     1
 62
     7
176
     1
 90
        3
176
     1
 90
        0
176
     1
 90
        0
176
     1
290
     0
176
     1
 90
       13
176
     1
 40
0.0
176
     1
 90
        0
176
     1
290
     0
176
     1
290
     1
176
     1
290
     1
176
     1
290
     0
176
     1
290
     0
176
     1
290
     0
176
     1
290
     0
176
     1
290
     0
176
     1
290
     0
176
     1
 90
       50
176
     1
 40
0.0
176
     1
 40
1.0
176
     1
 90
        0
176
     1
 62
    18
420
        0
176
     1
 90
       50
176
     1
 90
        3
176
     1
 62
     5
420
      255
176
     1
290
     0
176
     1
 90
       50
176
     1
 90
       50
176
     1
 90
       50
176
     1
290
     0
176
     1
 90
       50
176
     1
 62
   256
176
     0
 40
1.0
176
     0
 90
        2
176
     1
  1
strokes_ogs.tif
176
     1
290
     0
176
     1
 40
1.0
176
     1
 40
1.0
176
     1
  0
VISUALSTYLE
  5
42
102
{ACAD_REACTORS
330
2A
102
}
330
2A
100
AcDbVisualStyle
  2
Shaded
 70
    27
177
     3
291
     0
 70
    58
 90
        2
176
     1
 90
        2
176
     1
 90
        1
176
     1
 90
        2
176
     1
 40
0.6
176
     1
 40
30.0
176
     1
 62
     7
420
 16777215
176
     1
 90
        0
176
     1
 90
        4
176
     1
 62
     7
176
     1
 62
   257
176
     1
 90
        1
176
     1
 90
        1
176
     1
 40
1.0
176
     1
 90
        8
176
     1
 62
   257
176
     1
 40
1.0
176
     1
 90
        1
176
     1
 90
        6
176
     1
 90
        2
176
     1
 62
     8
420
  7895160
176
     1
 90
        3
176
     1
 90
        0
176
     1
 90
        0
176
     1
290
     0
176
     1
 90
        5
176
     1
 40
0.0
176
     1
 90
        0
176
     1
290
     0
176
     1
290
     1
176
     1
290
     1
176
     1
290
     0
176
     1
290
     0
176
     1
290
     0
176
     1
290
     0
176
     1
290
     0
176
     1
290
     0
176
     1
 90
       50
176
     1
 40
0.0
176
     1
 40
1.0
176
     1
 90
        0
176
     1
 62
    18
420
        0
176
     1
 90
       50
176
     1
 90
        3
176
     1
 62
     5
420
      255
176
     1
290
     0
176
     1
 90
       50
176
     1
 90
       50
176
     1
 90
       50
176
     1
290
     0
176
     1
 90
       50
176
     1
 62
   256
176
     0
 40
1.0
176
     0
 90
        2
176
     1
  1
strokes_ogs.tif
176
     1
290
     0
176
     1
 40
1.0
176
     1
 40
1.0
176
     1
  0
VISUALSTYLE
  5
41
102
{ACAD_REACTORS
330
2A
102
}
330
2A
100
AcDbVisualStyle
  2
Shaded with edges
 70
    26
177
     3
291
     0
 70
    58
 90
        2
176
     1
 90
        2
176
     1
 90
        1
176
     1
 90
        2
176
     1
 40
0.6
176
     1
 40
30.0
176
     1
 62
     7
420
 16777215
176
     1
 90
        1
176
     1
 90
       10
176
     1
 62
     7
176
     1
 62
   257
176
     1
 90
        2
176
     1
 90
        1
176
     1
 40
1.0
176
     1
 90
        8
176
     1
 62
   257
176
     1
 40
1.0
176
     1
 90
        1
176
     1
 90
        6
176
     1
 90
        2
176
     1
 62
     7
176
     1
 90
        3
176
     1
 90
        0
176
     1
 90
        0
176
     1
290
     0
176
     1
 90
        5
176
     1
 40
0.0
176
     1
 90
        0
176
     1
290
     0
176
     1
290
     1
176
     1
290
     1
176
     1
290
     0
176
     1
290
     0
176
     1
290
     0
176
     1
290
     0
176
     1
290
     0
176
     1
290
     0
176
     1
 90
       50
176
     1
 40
0.0
176
     1
 40
1.0
176
     1
 90
        0
176
     1
 62
    18
420
        0
176
     1
 90
       50
176
     1
 90
        3
176
     1
 62
     5
420
      255
176
     1
290
     0
176
     1
 90
       50
176
     1
 90
       50
176
     1
 90
       50
176
     1
290
     0
176
     1
 90
       50
176
     1
 62
   256
176
     0
 40
1.0
176
     0
 90
        2
176
     1
  1
strokes_ogs.tif
176
     1
290
     0
176
     1
 40
1.0
176
     1
 40
1.0
176
     1
  0
VISUALSTYLE
  5
3E
102
{ACAD_REACTORS
330
2A
102
}
330
2A
100
AcDbVisualStyle
  2
Shades of Gray
 70
    23
177
     3
291
     0
 70
    58
 90
        2
176
     1
 90
        2
176
     1
 90
        3
176
     1
 90
        0
176
     1
 40
0.6
176
     1
 40
30.0
176
     1
 62
     7
420
 16777215
176
     1
 90
        2
176
     1
 90
        2
176
     1
 62
     7
176
     1
 62
     7
176
     1
 90
        1
176
     1
 90
        1
176
     1
 40
40.0
176
     1
 90
        8
176
     1
 62
     7
176
     1
 40
1.0
176
     1
 90
        1
176
     1
 90
        6
176
     1
 90
        2
176
     1
 62
     7
176
     1
 90
        3
176
     1
 90
        0
176
     1
 90
        0
176
     1
290
     0
176
     1
 90
        1
176
     1
 40
0.0
176
     1
 90
        0
176
     1
290
     0
176
     1
290
     1
176
     1
290
     1
176
     1
290
     0
176
     1
290
     0
176
     1
290
     0
176
     1
290
     0
176
     1
290
     0
176
     1
290
     0
176
     1
 90
       50
176
     1
 40
0.0
176
     1
 40
1.0
176
     1
 90
        0
176
     1
 62
    18
420
        0
176
     1
 90
       50
176
     1
 90
        3
176
     1
 62
     5
420
      255
176
     1
290
     0
176
     1
 90
       50
176
     1
 90
       50
176
     1
 90
       50
176
     1
290
     0
176
     1
 90
       50
176
     1
 62
   256
176
     0
 40
1.0
176
     0
 90
        2
176
     1
  1
strokes_ogs.tif
176
     1
290
     0
176
     1
 40
1.0
176
     1
 40
1.0
176
     1
  0
VISUALSTYLE
  5
3F
102
{ACAD_REACTORS
330
2A
102
}
330
2A
100
AcDbVisualStyle
  2
Sketchy
 70
    24
177
     3
291
     0
 70
    58
 90
        1
176
     1
 90
        2
176
     1
 90
        2
176
     1
 90
        0
176
     1
 40
0.6
176
     1
 40
30.0
176
     1
 62
     7
420
 16777215
176
     1
 90
        2
176
     1
 90
        2
176
     1
 62
     7
176
     1
 62
     7
176
     1
 90
        1
176
     1
 90
        1
176
     1
 40
40.0
176
     1
 90
       11
176
     1
 62
     7
176
     1
 40
1.0
176
     1
 90
        1
176
     1
 90
        6
176
     1
 90
        2
176
     1
 62
     7
176
     1
 90
        6
176
     1
 90
        0
176
     1
 90
        0
176
     1
290
     0
176
     1
 90
        1
176
     1
 40
0.0
176
     1
 90
        0
176
     1
290
     0
176
     1
290
     1
176
     1
290
     1
176
     1
290
     0
176
     1
290
     0
176
     1
290
     0
176
     1
290
     0
176
     1
290
     0
176
     1
290
     0
176
     1
 90
       50
176
     1
 40
0.0
176
     1
 40
1.0
176
     1
 90
        0
176
     1
 62
    18
420
        0
176
     1
 90
       50
176
     1
 90
        3
176
     1
 62
     5
420
      255
176
     1
290
     0
176
     1
 90
       50
176
     1
 90
       50
176
     1
 90
       50
176
     1
290
     0
176
     1
 90
       50
176
     1
 62
   256
176
     0
 40
1.0
176
     0
 90
        2
176
     1
  1
strokes_ogs.tif
176
     1
290
     0
176
     1
 40
1.0
176
     1
 40
1.0
176
     1
  0
VISUALSTYLE
  5
37
102
{ACAD_REACTORS
330
2A
102
}
330
2A
100
AcDbVisualStyle
  2
Thicken
 70
    13
177
     3
291
     1
 70
    58
 90
        2
176
     1
 90
        2
176
     1
 90
        0
176
     1
 90
        0
176
     1
 40
0.6
176
     1
 40
30.0
176
     1
 62
     7
420
 16777215
176
     1
 90
        1
176
     1
 90
        4
176
     1
 62
     7
176
     1
 62
   257
176
     1
 90
        1
176
     1
 90
        1
176
     1
 40
1.0
176
     1
 90
       12
176
     1
 62
     7
176
     1
 40
1.0
176
     1
 90
        1
176
     1
 90
        6
176
     1
 90
        2
176
     1
 62
     7
176
     1
 90
        5
176
     1
 90
        0
176
     1
 90
        0
176
     1
290
     0
176
     1
 90
        1
176
     1
 40
0.0
176
     1
 90
        0
176
     1
290
     0
176
     1
290
     1
176
     1
290
     1
176
     1
290
     0
176
     1
290
     0
176
     1
290
     0
176
     1
290
     0
176
     1
290
     0
176
     1
290
     0
176
     1
 90
       50
176
     1
 40
0.0
176
     1
 40
1.0
176
     1
 90
        0
176
     1
 62
    18
420
        0
176
     1
 90
       50
176
     1
 90
        3
176
     1
 62
     5
420
      255
176
     1
290
     0
176
     1
 90
       50
176
     1
 90
       50
176
     1
 90
       50
176
     1
290
     0
176
     1
 90
       50
176
     1
 62
   256
176
     0
 40
1.0
176
     0
 90
        2
176
     1
  1
strokes_ogs.tif
176
     1
290
     0
176
     1
 40
1.0
176
     1
 40
1.0
176
     1
  0
VISUALSTYLE
  5
30
102
{ACAD_REACTORS
330
2A
102
}
330
2A
100
AcDbVisualStyle
  2
Wireframe
 70
     5
177
     3
291
     0
 70
    58
 90
        0
176
     1
 90
        2
176
     1
 90
        0
176
     1
 90
        0
176
     1
 40
0.6
176
     1
 40
30.0
176
     1
 62
     7
420
 16777215
176
     1
 90
        1
176
     1
 90
        4
176
     1
 62
     7
176
     1
 62
   257
176
     1
 90
        1
176
     1
 90
        1
176
     1
 40
1.0
176
     1
 90
        0
176
     1
 62
   257
176
     1
 40
1.0
176
     1
 90
        1
176
     1
 90
        6
176
     1
 90
        2
176
     1
 62
     7
176
     1
 90
        3
176
     1
 90
        0
176
     1
 90
        0
176
     1
290
     0
176
     1
 90
        1
176
     1
 40
0.0
176
     1
 90
        0
176
     1
290
     0
176
     1
290
     1
176
     1
290
     1
176
     1
290
     0
176
     1
290
     0
176
     1
290
     0
176
     1
290
     0
176
     1
290
     0
176
     1
290
     0
176
     1
 90
       50
176
     1
 40
0.0
176
     1
 40
1.0
176
     1
 90
        0
176
     1
 62
    18
420
        0
176
     1
 90
       50
176
     1
 90
        3
176
     1
 62
     5
420
      255
176
     1
290
     0
176
     1
 90
       50
176
     1
 90
       50
176
     1
 90
       50
176
     1
290
     0
176
     1
 90
       50
176
     1
 62
   256
176
     0
 40
1.0
176
     0
 90
        2
176
     1
  1
strokes_ogs.tif
176
     1
290
     0
176
     1
 40
1.0
176
     1
 40
1.0
176
     1
  0
VISUALSTYLE
  5
40
102
{ACAD_REACTORS
330
2A
102
}
330
2A
100
AcDbVisualStyle
  2
X-Ray
 70
    25
177
     3
291
     0
 70
    58
 90
        2
176
     1
 90
        2
176
     1
 90
        1
176
     1
 90
        1
176
     1
 40
0.5
176
     1
 40
30.0
176
     1
 62
     7
420
 16777215
176
     1
 90
        1
176
     1
 90
        0
176
     1
 62
     7
176
     1
 62
   257
176
     1
 90
        1
176
     1
 90
        1
176
     1
 40
1.0
176
     1
 90
        8
176
     1
 62
     7
176
     1
 40
1.0
176
     1
 90
        1
176
     1
 90
        6
176
     1
 90
        2
176
     1
 62
     7
176
     1
 90
        3
176
     1
 90
        0
176
     1
 90
        0
176
     1
290
     0
176
     1
 90
       13
176
     1
 40
0.0
176
     1
 90
        0
176
     1
290
     0
176
     1
290
     1
176
     1
290
     1
176
     1
290
     0
176
     1
290
     0
176
     1
290
     0
176
     1
290
     0
176
     1
290
     0
176
     1
290
     0
176
     1
 90
       50
176
     1
 40
0.0
176
     1
 40
1.0
176
     1
 90
        0
176
     1
 62
    18
420
        0
176
     1
 90
       50
176
     1
 90
        3
176
     1
 62
     5
420
      255
176
     1
290
     0
176
     1
 90
       50
176
     1
 90
       50
176
     1
 90
       50
176
     1
290
     0
176
     1
 90
       50
176
     1
 62
   256
176
     0
 40
1.0
176
     0
 90
        2
176
     1
  1
strokes_ogs.tif
176
     1
290
     0
176
     1
 40
1.0
176
     1
 40
1.0
176
     1
  0
DICTIONARYVAR
  5
19B
102
{ACAD_REACTORS
330
19A
102
}
330
19A
100
DictionaryVariables
280
     0
  1
1:1
  0
DICTIONARYVAR
  5
1A3
102
{ACAD_REACTORS
330
19A
102
}
330
19A
100
DictionaryVariables
280
     0
  1
3.500000
  0
DICTIONARYVAR
  5
1A4
102
{ACAD_REACTORS
330
19A
102
}
330
19A
100
DictionaryVariables
280
     0
  1
acadiso.lin
  0
DICTIONARYVAR
  5
1A0
102
{ACAD_REACTORS
330
19A
102
}
330
19A
100
DictionaryVariables
280
     0
  1
Standard
  0
DICTIONARYVAR
  5
19F
102
{ACAD_REACTORS
330
19A
102
}
330
19A
100
DictionaryVariables
280
     0
  1
Standard
  0
DICTIONARY
  5
19C
330
6A
100
AcDbDictionary
280
     1
281
     1
  3
ACAD_ROUNDTRIP_2008_TABLESTYLE_CELLSTYLEMAP
360
19D
  0
CELLSTYLEMAP
  5
19D
102
{ACAD_REACTORS
330
19C
102
}
330
19C
100
AcDbCellStyleMap
 90
        3
300
CELLSTYLE
  1
TABLEFORMAT_BEGIN
 90
        5
170
     1
 91
        0
 92
    32768
 62
   257
 93
        1
300
CONTENTFORMAT
  1
CONTENTFORMAT_BEGIN
 90
        0
 91
        0
 92
        4
 93
        0
300

 40
0.0
140
1.0
 94
        5
 62
     0
340
11
144
6.0
309
CONTENTFORMAT_END
171
     1
301
MARGIN
  1
CELLMARGIN_BEGIN
 40
1.5
 40
1.5
 40
1.5
 40
1.5
 40
1.5
 40
1.5
309
CELLMARGIN_END
 94
        6
 95
        1
302
GRIDFORMAT
  1
GRIDFORMAT_BEGIN
 90
        0
 91
        1
 62
     0
 92
       -2
340
14
 93
        0
 40
0.045
309
GRIDFORMAT_END
 95
        2
302
GRIDFORMAT
  1
GRIDFORMAT_BEGIN
 90
        0
 91
        1
 62
     0
 92
       -2
340
14
 93
        0
 40
0.045
309
GRIDFORMAT_END
 95
        4
302
GRIDFORMAT
  1
GRIDFORMAT_BEGIN
 90
        0
 91
        1
 62
     0
 92
       -2
340
14
 93
        0
 40
0.045
309
GRIDFORMAT_END
 95
        8
302
GRIDFORMAT
  1
GRIDFORMAT_BEGIN
 90
        0
 91
        1
 62
     0
 92
       -2
340
14
 93
        0
 40
0.045
309
GRIDFORMAT_END
 95
       16
302
GRIDFORMAT
  1
GRIDFORMAT_BEGIN
 90
        0
 91
        1
 62
     0
 92
       -2
340
14
 93
        0
 40
0.045
309
GRIDFORMAT_END
 95
       32
302
GRIDFORMAT
  1
GRIDFORMAT_BEGIN
 90
        0
 91
        1
 62
     0
 92
       -2
340
14
 93
        0
 40
0.045
309
GRIDFORMAT_END
309
TABLEFORMAT_END
  1
CELLSTYLE_BEGIN
 90
        1
 91
        1
300
_TITLE
309
CELLSTYLE_END
300
CELLSTYLE
  1
TABLEFORMAT_BEGIN
 90
        5
170
     1
 91
        0
 92
        0
 62
   257
 93
        1
300
CONTENTFORMAT
  1
CONTENTFORMAT_BEGIN
 90
        0
 91
        0
 92
        4
 93
        0
300

 40
0.0
140
1.0
 94
        5
 62
     0
340
11
144
4.5
309
CONTENTFORMAT_END
171
     1
301
MARGIN
  1
CELLMARGIN_BEGIN
 40
1.5
 40
1.5
 40
1.5
 40
1.5
 40
1.5
 40
1.5
309
CELLMARGIN_END
 94
        6
 95
        1
302
GRIDFORMAT
  1
GRIDFORMAT_BEGIN
 90
        0
 91
        1
 62
     0
 92
       -2
340
14
 93
        0
 40
0.045
309
GRIDFORMAT_END
 95
        2
302
GRIDFORMAT
  1
GRIDFORMAT_BEGIN
 90
        0
 91
        1
 62
     0
 92
       -2
340
14
 93
        0
 40
0.045
309
GRIDFORMAT_END
 95
        4
302
GRIDFORMAT
  1
GRIDFORMAT_BEGIN
 90
        0
 91
        1
 62
     0
 92
       -2
340
14
 93
        0
 40
0.045
309
GRIDFORMAT_END
 95
        8
302
GRIDFORMAT
  1
GRIDFORMAT_BEGIN
 90
        0
 91
        1
 62
     0
 92
       -2
340
14
 93
        0
 40
0.045
309
GRIDFORMAT_END
 95
       16
302
GRIDFORMAT
  1
GRIDFORMAT_BEGIN
 90
        0
 91
        1
 62
     0
 92
       -2
340
14
 93
        0
 40
0.045
309
GRIDFORMAT_END
 95
       32
302
GRIDFORMAT
  1
GRIDFORMAT_BEGIN
 90
        0
 91
        1
 62
     0
 92
       -2
340
14
 93
        0
 40
0.045
309
GRIDFORMAT_END
309
TABLEFORMAT_END
  1
CELLSTYLE_BEGIN
 90
        2
 91
        1
300
_HEADER
309
CELLSTYLE_END
300
CELLSTYLE
  1
TABLEFORMAT_BEGIN
 90
        5
170
     1
 91
        0
 92
        0
 62
   257
 93
        1
300
CONTENTFORMAT
  1
CONTENTFORMAT_BEGIN
 90
        0
 91
        0
 92
        4
 93
        0
300

 40
0.0
140
1.0
 94
        2
 62
     0
340
11
144
4.5
309
CONTENTFORMAT_END
171
     1
301
MARGIN
  1
CELLMARGIN_BEGIN
 40
1.5
 40
1.5
 40
1.5
 40
1.5
 40
1.5
 40
1.5
309
CELLMARGIN_END
 94
        6
 95
        1
302
GRIDFORMAT
  1
GRIDFORMAT_BEGIN
 90
        0
 91
        1
 62
     0
 92
       -2
340
14
 93
        0
 40
0.045
309
GRIDFORMAT_END
 95
        2
302
GRIDFORMAT
  1
GRIDFORMAT_BEGIN
 90
        0
 91
        1
 62
     0
 92
       -2
340
14
 93
        0
 40
0.045
309
GRIDFORMAT_END
 95
        4
302
GRIDFORMAT
  1
GRIDFORMAT_BEGIN
 90
        0
 91
        1
 62
     0
 92
       -2
340
14
 93
        0
 40
0.045
309
GRIDFORMAT_END
 95
        8
302
GRIDFORMAT
  1
GRIDFORMAT_BEGIN
 90
        0
 91
        1
 62
     0
 92
       -2
340
14
 93
        0
 40
0.045
309
GRIDFORMAT_END
 95
       16
302
GRIDFORMAT
  1
GRIDFORMAT_BEGIN
 90
        0
 91
        1
 62
     0
 92
       -2
340
14
 93
        0
 40
0.045
309
GRIDFORMAT_END
 95
       32
302
GRIDFORMAT
  1
GRIDFORMAT_BEGIN
 90
        0
 91
        1
 62
     0
 92
       -2
340
14
 93
        0
 40
0.045
309
GRIDFORMAT_END
309
TABLEFORMAT_END
  1
CELLSTYLE_BEGIN
 90
        3
 91
        2
300
_DATA
309
CELLSTYLE_END
  0
ENDSEC
  0
EOF
