  0
SECTION
  2
HEADER
  9
$ACADVER
  1
AC1027
  9
$ACADMAINTVER
 70
   105
  9
$DWGCODEPAGE
  3
ANSI_1251
  9
$REQUIREDVERSIONS
160
                 0
  9
$INSBASE
 10
0.0
 20
0.0
 30
0.0
  9
$EXTMIN
 10
0.0
 20
0.0
 30
0.0
  9
$EXTMAX
 10
300.0
 20
420.0
 30
0.0
  9
$LIMMIN
 10
0.0
 20
0.0
  9
$LIMMAX
 10
300.0
 20
420.0
  9
$ORTHOMODE
 70
     0
  9
$REGENMODE
 70
     1
  9
$FILLMODE
 70
     1
  9
$QTEXTMODE
 70
     0
  9
$MIRRTEXT
 70
     1
  9
$LTSCALE
 40
1.0
  9
$ATTMODE
 70
     1
  9
$TEXTSIZE
 40
3.5
  9
$TRACEWID
 40
1.0
  9
$TEXTSTYLE
  7
Standard
  9
$CLAYER
  8
0
  9
$CELTYPE
  6
ByLayer
  9
$CECOLOR
 62
   256
  9
$CELTSCALE
 40
1.0
  9
$DISPSILH
 70
     0
  9
$DIMSCALE
 40
1.0
  9
$DIMASZ
 40
3.0
  9
$DIMEXO
 40
1.0
  9
$DIMDLI
 40
3.75
  9
$DIMRND
 40
0.0
  9
$DIMDLE
 40
0.0
  9
$DIMEXE
 40
2.0
  9
$DIMTP
 40
0.0
  9
$DIMTM
 40
0.0
  9
$DIMTXT
 40
4.9388888889
  9
$DIMCEN
 40
2.5
  9
$DIMTSZ
 40
0.0
  9
$DIMTOL
 70
     0
  9
$DIMLIM
 70
     0
  9
$DIMTIH
 70
     1
  9
$DIMTOH
 70
     1
  9
$DIMSE1
 70
     0
  9
$DIMSE2
 70
     0
  9
$DIMTAD
 70
     1
  9
$DIMZIN
 70
     0
  9
$DIMBLK
  1

  9
$DIMASO
 70
     1
  9
$DIMSHO
 70
     1
  9
$DIMPOST
  1

  9
$DIMAPOST
  1

  9
$DIMALT
 70
     0
  9
$DIMALTD
 70
     3
  9
$DIMALTF
 40
0.0393700787
  9
$DIMLFAC
 40
1.0
  9
$DIMTOFL
 70
     1
  9
$DIMTVP
 40
0.0
  9
$DIMTIX
 70
     0
  9
$DIMSOXD
 70
     0
  9
$DIMSAH
 70
     0
  9
$DIMBLK1
  1

  9
$DIMBLK2
  1

  9
$DIMSTYLE
  2
ISO-25
  9
$DIMCLRD
 70
     0
  9
$DIMCLRE
 70
     0
  9
$DIMCLRT
 70
     0
  9
$DIMTFAC
 40
1.0
  9
$DIMGAP
 40
1.524
  9
$DIMJUST
 70
     0
  9
$DIMSD1
 70
     0
  9
$DIMSD2
 70
     0
  9
$DIMTOLJ
 70
     0
  9
$DIMTZIN
 70
     0
  9
$DIMALTZ
 70
     0
  9
$DIMALTTZ
 70
     0
  9
$DIMUPT
 70
     0
  9
$DIMDEC
 70
     0
  9
$DIMTDEC
 70
     1
  9
$DIMALTU
 70
     2
  9
$DIMALTTD
 70
     3
  9
$DIMTXSTY
  7
Standard
  9
$DIMAUNIT
 70
     0
  9
$DIMADEC
 70
     0
  9
$DIMALTRND
 40
0.0
  9
$DIMAZIN
 70
     0
  9
$DIMDSEP
 70
    44
  9
$DIMATFIT
 70
     3
  9
$DIMFRAC
 70
     0
  9
$DIMLDRBLK
  1

  9
$DIMLUNIT
 70
     2
  9
$DIMLWD
 70
    -2
  9
$DIMLWE
 70
    -2
  9
$DIMTMOVE
 70
     0
  9
$DIMFXL
 40
1.0
  9
$DIMFXLON
 70
     0
  9
$DIMJOGANG
 40
0.7853981634
  9
$DIMTFILL
 70
     0
  9
$DIMTFILLCLR
 70
     0
  9
$DIMARCSYM
 70
     0
  9
$DIMLTYPE
  6

  9
$DIMLTEX1
  6

  9
$DIMLTEX2
  6

  9
$DIMTXTDIRECTION
 70
     0
  9
$LUNITS
 70
     2
  9
$LUPREC
 70
     4
  9
$SKETCHINC
 40
1.0
  9
$FILLETRAD
 40
10.0
  9
$AUNITS
 70
     0
  9
$AUPREC
 70
     2
  9
$MENU
  1
.
  9
$ELEVATION
 40
0.0
  9
$PELEVATION
 40
0.0
  9
$THICKNESS
 40
0.0
  9
$LIMCHECK
 70
     0
  9
$CHAMFERA
 40
0.0
  9
$CHAMFERB
 40
0.0
  9
$CHAMFERC
 40
0.0
  9
$CHAMFERD
 40
0.0
  9
$SKPOLY
 70
     0
  9
$TDCREATE
 40
2459599.645924363
  9
$TDUCREATE
 40
2459599.56259103
  9
$TDUPDATE
 40
2459599.645924965
  9
$TDUUPDATE
 40
2459599.562591632
  9
$TDINDWG
 40
0.0000000116
  9
$TDUSRTIMER
 40
0.0000000116
  9
$USRTIMER
 70
     1
  9
$ANGBASE
 50
0.0
  9
$ANGDIR
 70
     0
  9
$PDMODE
 70
     0
  9
$PDSIZE
 40
-1.0
  9
$PLINEWID
 40
0.0
  9
$SPLFRAME
 70
     0
  9
$SPLINETYPE
 70
     6
  9
$SPLINESEGS
 70
     8
  9
$HANDSEED
  5
496
  9
$SURFTAB1
 70
     6
  9
$SURFTAB2
 70
     6
  9
$SURFTYPE
 70
     6
  9
$SURFU
 70
     6
  9
$SURFV
 70
     6
  9
$UCSBASE
  2

  9
$UCSNAME
  2

  9
$UCSORG
 10
0.0
 20
0.0
 30
0.0
  9
$UCSXDIR
 10
1.0
 20
0.0
 30
0.0
  9
$UCSYDIR
 10
0.0
 20
1.0
 30
0.0
  9
$UCSORTHOREF
  2

  9
$UCSORTHOVIEW
 70
     0
  9
$UCSORGTOP
 10
0.0
 20
0.0
 30
0.0
  9
$UCSORGBOTTOM
 10
0.0
 20
0.0
 30
0.0
  9
$UCSORGLEFT
 10
0.0
 20
0.0
 30
0.0
  9
$UCSORGRIGHT
 10
0.0
 20
0.0
 30
0.0
  9
$UCSORGFRONT
 10
0.0
 20
0.0
 30
0.0
  9
$UCSORGBACK
 10
0.0
 20
0.0
 30
0.0
  9
$PUCSBASE
  2

  9
$PUCSNAME
  2

  9
$PUCSORG
 10
0.0
 20
0.0
 30
0.0
  9
$PUCSXDIR
 10
1.0
 20
0.0
 30
0.0
  9
$PUCSYDIR
 10
0.0
 20
1.0
 30
0.0
  9
$PUCSORTHOREF
  2

  9
$PUCSORTHOVIEW
 70
     0
  9
$PUCSORGTOP
 10
0.0
 20
0.0
 30
0.0
  9
$PUCSORGBOTTOM
 10
0.0
 20
0.0
 30
0.0
  9
$PUCSORGLEFT
 10
0.0
 20
0.0
 30
0.0
  9
$PUCSORGRIGHT
 10
0.0
 20
0.0
 30
0.0
  9
$PUCSORGFRONT
 10
0.0
 20
0.0
 30
0.0
  9
$PUCSORGBACK
 10
0.0
 20
0.0
 30
0.0
  9
$USERI1
 70
     0
  9
$USERI2
 70
     0
  9
$USERI3
 70
     0
  9
$USERI4
 70
     0
  9
$USERI5
 70
     0
  9
$USERR1
 40
0.0
  9
$USERR2
 40
0.0
  9
$USERR3
 40
0.0
  9
$USERR4
 40
0.0
  9
$USERR5
 40
0.0
  9
$WORLDVIEW
 70
     1
  9
$SHADEDGE
 70
     3
  9
$SHADEDIF
 70
    70
  9
$TILEMODE
 70
     1
  9
$MAXACTVP
 70
    64
  9
$PINSBASE
 10
0.0
 20
0.0
 30
0.0
  9
$PLIMCHECK
 70
     0
  9
$PEXTMIN
 10
1.0000000000E+20
 20
1.0000000000E+20
 30
1.0000000000E+20
  9
$PEXTMAX
 10
-1.0000000000E+20
 20
-1.0000000000E+20
 30
-1.0000000000E+20
  9
$PLIMMIN
 10
0.0
 20
0.0
  9
$PLIMMAX
 10
420.0
 20
297.0
  9
$UNITMODE
 70
     0
  9
$VISRETAIN
 70
     1
  9
$PLINEGEN
 70
     0
  9
$PSLTSCALE
 70
     1
  9
$TREEDEPTH
 70
  3020
  9
$CMLSTYLE
  2
Standard
  9
$CMLJUST
 70
     0
  9
$CMLSCALE
 40
20.0
  9
$PROXYGRAPHICS
 70
     1
  9
$MEASUREMENT
 70
     1
  9
$CELWEIGHT
370
    -1
  9
$ENDCAPS
280
     0
  9
$JOINSTYLE
280
     0
  9
$LWDISPLAY
290
     1
  9
$INSUNITS
 70
     4
  9
$HYPERLINKBASE
  1

  9
$STYLESHEET
  1

  9
$XEDIT
290
     1
  9
$CEPSNTYPE
380
     0
  9
$PSTYLEMODE
290
     1
  9
$FINGERPRINTGUID
  2
{b6a7ce8b-4a05-4a79-9855-210c7de16b53}
  9
$VERSIONGUID
  2
{FAEB1C32-E019-11D5-929B-00C0DF256EC4}
  9
$EXTNAMES
290
     1
  9
$PSVPSCALE
 40
0.0
  9
$OLESTARTUP
290
     0
  9
$SORTENTS
280
   127
  9
$INDEXCTL
280
     0
  9
$HIDETEXT
280
     1
  9
$XCLIPFRAME
280
     2
  9
$HALOGAP
280
     0
  9
$OBSCOLOR
 70
   257
  9
$OBSLTYPE
280
     0
  9
$INTERSECTIONDISPLAY
280
     0
  9
$INTERSECTIONCOLOR
 70
   257
  9
$DIMASSOC
280
     2
  9
$PROJECTNAME
  1

  9
$CAMERADISPLAY
290
     0
  9
$LENSLENGTH
 40
50.0
  9
$CAMERAHEIGHT
 40
0.0
  9
$STEPSPERSEC
 40
2.0
  9
$STEPSIZE
 40
6.0
  9
$3DDWFPREC
 40
2.0
  9
$PSOLWIDTH
 40
5.0
  9
$PSOLHEIGHT
 40
80.0
  9
$LOFTANG1
 40
1.5707963268
  9
$LOFTANG2
 40
1.5707963268
  9
$LOFTMAG1
 40
0.0
  9
$LOFTMAG2
 40
0.0
  9
$LOFTPARAM
 70
     7
  9
$LOFTNORMALS
280
     1
  9
$LATITUDE
 40
37.795
  9
$LONGITUDE
 40
-122.394
  9
$NORTHDIRECTION
 40
0.0
  9
$TIMEZONE
 70
 -8000
  9
$LIGHTGLYPHDISPLAY
280
     1
  9
$TILEMODELIGHTSYNCH
280
     1
  9
$CMATERIAL
347
44
  9
$SOLIDHIST
280
     0
  9
$SHOWHIST
280
     1
  9
$DWFFRAME
280
     2
  9
$DGNFRAME
280
     2
  9
$REALWORLDSCALE
290
     1
  9
$INTERFERECOLOR
 62
   256
  9
$CSHADOW
280
     0
  9
$SHADOWPLANELOCATION
 40
0.0
  0
ENDSEC
  0
SECTION
  2
CLASSES
  0
CLASS
  1
ACDBDICTIONARYWDFLT
  2
AcDbDictionaryWithDefault
  3
ObjectDBX Classes
 90
        0
 91
        3
280
     0
281
     0
  0
CLASS
  1
VISUALSTYLE
  2
AcDbVisualStyle
  3
ObjectDBX Classes
 90
     4095
 91
        3
280
     0
281
     0
  0
CLASS
  1
MATERIAL
  2
AcDbMaterial
  3
ObjectDBX Classes
 90
     1153
 91
        3
280
     0
281
     0
  0
CLASS
  1
SCALE
  2
AcDbScale
  3
ObjectDBX Classes
 90
     1153
 91
        3
280
     0
281
     0
  0
CLASS
  1
TABLESTYLE
  2
AcDbTableStyle
  3
ObjectDBX Classes
 90
     4095
 91
        3
280
     0
281
     0
  0
CLASS
  1
MLEADERSTYLE
  2
AcDbMLeaderStyle
  3
ACDB_MLEADERSTYLE_CLASS
 90
     4095
 91
        3
280
     0
281
     0
  0
CLASS
  1
SUN
  2
AcDbSun
  3
SCENEOE
 90
     1153
 91
        3
280
     0
281
     0
  0
CLASS
  1
DICTIONARYVAR
  2
AcDbDictionaryVar
  3
ObjectDBX Classes
 90
        0
 91
        3
280
     0
281
     0
  0
CLASS
  1
CELLSTYLEMAP
  2
AcDbCellStyleMap
  3
ObjectDBX Classes
 90
     1152
 91
        3
280
     0
281
     0
  0
ENDSEC
  0
SECTION
  2
TABLES
  0
TABLE
  2
VPORT
  5
8
330
0
100
AcDbSymbolTable
 70
     1
  0
VPORT
  5
29
330
8
100
AcDbSymbolTableRecord
100
AcDbViewportTableRecord
  2
*Active
 70
     0
 10
0.0
 20
0.0
 11
1.0
 21
1.0
 12
150.0
 22
210.0
 13
0.0
 23
0.0
 14
10.0
 24
10.0
 15
10.0
 25
10.0
 16
0.0
 26
0.0
 36
1.0
 17
0.0
 27
0.0
 37
0.0
 40
420.0
 41
0.7142857143
 42
50.0
 43
0.0
 44
0.0
 50
0.0
 51
0.0
 71
     0
 72
  2000
 73
     1
 74
     3
 75
     0
 76
     0
 77
     0
 78
     0
281
     0
 65
     1
110
0.0
120
0.0
130
0.0
111
1.0
121
0.0
131
0.0
112
0.0
122
1.0
132
0.0
 79
     0
146
0.0
348
2F
 60
     3
 61
     5
292
     1
282
     1
141
0.0
142
0.0
 63
   250
361
6D
  0
ENDTAB
  0
TABLE
  2
LTYPE
  5
5
330
0
100
AcDbSymbolTable
 70
     6
  0
LTYPE
  5
14
330
5
100
AcDbSymbolTableRecord
100
AcDbLinetypeTableRecord
  2
ByBlock
 70
     0
  3

 72
    65
 73
     0
 40
0.0
  0
LTYPE
  5
15
330
5
100
AcDbSymbolTableRecord
100
AcDbLinetypeTableRecord
  2
ByLayer
 70
     0
  3

 72
    65
 73
     0
 40
0.0
  0
LTYPE
  5
16
330
5
100
AcDbSymbolTableRecord
100
AcDbLinetypeTableRecord
  2
Continuous
 70
     0
  3
Solid line
 72
    65
 73
     0
 40
0.0
  0
LTYPE
  5
6E
330
5
100
AcDbSymbolTableRecord
100
AcDbLinetypeTableRecord
  2
HIDDEN
 70
     0
  3
Hidden __ __ __ __ __ __ __ __ __ __ __ __ __ __
 72
    65
 73
     2
 40
1.905
 49
1.27
 74
     0
 49
-0.635
 74
     0
  0
LTYPE
  5
6F
330
5
100
AcDbSymbolTableRecord
100
AcDbLinetypeTableRecord
  2
PHANTOM
 70
     0
  3
Phantom ______  __  __  ______  __  __  ______
 72
    65
 73
     6
 40
12.7
 49
6.35
 74
     0
 49
-1.27
 74
     0
 49
1.27
 74
     0
 49
-1.27
 74
     0
 49
1.27
 74
     0
 49
-1.27
 74
     0
  0
LTYPE
  5
70
330
5
100
AcDbSymbolTableRecord
100
AcDbLinetypeTableRecord
  2
CENTER
 70
     0
  3
Center ____ _ ____ _ ____ _ ____ _ ____ _ ____
 72
    65
 73
     4
 40
10.16
 49
6.35
 74
     0
 49
-1.27
 74
     0
 49
1.27
 74
     0
 49
-1.27
 74
     0
  0
LTYPE
  5
71
330
5
100
AcDbSymbolTableRecord
100
AcDbLinetypeTableRecord
  2
CENTERX2
 70
     0
  3
Center (2x) ________  __  ________  __  _____
 72
    65
 73
     4
 40
20.32
 49
12.7
 74
     0
 49
-2.54
 74
     0
 49
2.54
 74
     0
 49
-2.54
 74
     0
  0
LTYPE
  5
72
330
5
100
AcDbSymbolTableRecord
100
AcDbLinetypeTableRecord
  2
DOT2
 70
     0
  3
Dot (.5x) ........................................
 72
    65
 73
     2
 40
0.635
 49
0.0
 74
     0
 49
-0.635
 74
     0
  0
ENDTAB
  0
TABLE
  2
LAYER
  5
2
330
0
100
AcDbSymbolTable
 70
     1
  0
LAYER
  5
10
330
2
100
AcDbSymbolTableRecord
100
AcDbLayerTableRecord
  2
0
 70
     0
 62
     7
  6
Continuous
370
    -3
390
F
347
46
348
0
  0
ENDTAB
  0
TABLE
  2
STYLE
  5
3
330
0
100
AcDbSymbolTable
 70
     1
  0
STYLE
  5
11
330
3
100
AcDbSymbolTableRecord
100
AcDbTextStyleTableRecord
  2
Standard
 70
     0
 40
0.0
 41
1.0
 50
0.0
 71
     0
 42
3.5
  3
txt
  4

  0
ENDTAB
  0
TABLE
  2
VIEW
  5
6
330
0
100
AcDbSymbolTable
 70
     0
  0
ENDTAB
  0
TABLE
  2
UCS
  5
7
330
0
100
AcDbSymbolTable
 70
     0
  0
ENDTAB
  0
TABLE
  2
APPID
  5
9
330
0
100
AcDbSymbolTable
 70
     1
  0
APPID
  5
12
330
9
100
AcDbSymbolTableRecord
100
AcDbRegAppTableRecord
  2
ACAD
 70
     0
  0
ENDTAB
  0
TABLE
  2
DIMSTYLE
  5
A
330
0
100
AcDbSymbolTable
 70
     1
100
AcDbDimStyleTable
  0
DIMSTYLE
105
27
330
A
100
AcDbSymbolTableRecord
100
AcDbDimStyleTableRecord
  2
ISO-25
 70
     0
 41
2.5
 42
0.625
 43
3.75
 44
1.25
 73
     0
 74
     0
 77
     1
 78
     8
140
2.5
141
2.5
143
0.0393700787
147
0.625
171
     3
172
     1
178
     0
271
     2
272
     2
274
     3
278
    44
283
     0
284
     8
340
11
  0
ENDTAB
  0
TABLE
  2
BLOCK_RECORD
  5
1
330
0
100
AcDbSymbolTable
 70
     1
  0
BLOCK_RECORD
  5
1F
330
1
100
AcDbSymbolTableRecord
100
AcDbBlockTableRecord
  2
*Model_Space
340
22
 70
     0
280
     1
281
     0
  0
BLOCK_RECORD
  5
1B
330
1
100
AcDbSymbolTableRecord
100
AcDbBlockTableRecord
  2
*Paper_Space
340
1E
 70
     0
280
     1
281
     0
  0
BLOCK_RECORD
  5
23
330
1
100
AcDbSymbolTableRecord
100
AcDbBlockTableRecord
  2
*Paper_Space0
340
26
 70
     0
280
     1
281
     0
  0
ENDTAB
  0
ENDSEC
  0
SECTION
  2
BLOCKS
  0
BLOCK
  5
20
330
1F
100
AcDbEntity
  8
0
100
AcDbBlockBegin
  2
*Model_Space
 70
     0
 10
0.0
 20
0.0
 30
0.0
  3
*Model_Space
  1

  0
ENDBLK
  5
21
330
1F
100
AcDbEntity
  8
0
100
AcDbBlockEnd
  0
BLOCK
  5
1C
330
1B
100
AcDbEntity
 67
     1
  8
0
100
AcDbBlockBegin
  2
*Paper_Space
 70
     0
 10
0.0
 20
0.0
 30
0.0
  3
*Paper_Space
  1

  0
ENDBLK
  5
1D
330
1B
100
AcDbEntity
 67
     1
  8
0
100
AcDbBlockEnd
  0
BLOCK
  5
24
330
23
100
AcDbEntity
  8
0
100
AcDbBlockBegin
  2
*Paper_Space0
 70
     0
 10
0.0
 20
0.0
 30
0.0
  3
*Paper_Space0
  1

  0
ENDBLK
  5
25
330
23
100
AcDbEntity
  8
0
100
AcDbBlockEnd
  0
ENDSEC
  0
SECTION
  2
ENTITIES
  0
LINE
  5
73
330
1F
100
AcDbEntity
  8
0
  6
Continuous
 62
     7
370
    50
100
AcDbLine
 10
110.8127722982
 20
187.3014357729
 30
0.0
 11
110.8127722982
 21
189.3014357729
 31
0.0
  0
LINE
  5
74
330
1F
100
AcDbEntity
  8
0
  6
Continuous
 62
     7
370
    50
100
AcDbLine
 10
91.8127722982
 20
189.3014357729
 30
0.0
 11
91.8127722982
 21
187.3014357729
 31
0.0
  0
LINE
  5
75
330
1F
100
AcDbEntity
  8
0
  6
Continuous
 62
     7
370
    50
100
AcDbLine
 10
91.8127722982
 20
333.3014357729
 30
0.0
 11
91.8127722982
 21
331.3014357729
 31
0.0
  0
LINE
  5
76
330
1F
100
AcDbEntity
  8
0
  6
Continuous
 62
     7
370
    50
100
AcDbLine
 10
110.8127722982
 20
331.3014357729
 30
0.0
 11
110.8127722982
 21
333.3014357729
 31
0.0
  0
LINE
  5
77
330
1F
100
AcDbEntity
  8
0
  6
Continuous
 62
     7
370
    50
100
AcDbLine
 10
110.8127722982
 20
187.3014357729
 30
0.0
 11
109.3235072832
 21
187.3014357729
 31
0.0
  0
LINE
  5
78
330
1F
100
AcDbEntity
  8
0
  6
Continuous
 62
     7
370
    50
100
AcDbLine
 10
93.3020373132
 20
187.3014357729
 30
0.0
 11
91.8127722982
 21
187.3014357729
 31
0.0
  0
LINE
  5
79
330
1F
100
AcDbEntity
  8
0
  6
Continuous
 62
     7
370
    50
100
AcDbLine
 10
91.8127722982
 20
333.3014357729
 30
0.0
 11
93.3020373132
 21
333.3014357729
 31
0.0
  0
LINE
  5
7A
330
1F
100
AcDbEntity
  8
0
  6
Continuous
 62
     7
370
    50
100
AcDbLine
 10
109.3235072832
 20
333.3014357729
 30
0.0
 11
110.8127722982
 21
333.3014357729
 31
0.0
  0
LINE
  5
7B
330
1F
100
AcDbEntity
  8
0
  6
Continuous
 62
     7
370
    50
100
AcDbLine
 10
93.0855309622
 20
192.3014357729
 30
0.0
 11
93.0855309622
 21
189.3014357729
 31
0.0
  0
LINE
  5
7C
330
1F
100
AcDbEntity
  8
0
  6
Continuous
 62
     7
370
    50
100
AcDbLine
 10
93.3020373132
 20
189.3014357729
 30
0.0
 11
93.0855309622
 21
189.3014357729
 31
0.0
  0
LINE
  5
7D
330
1F
100
AcDbEntity
  8
0
  6
Continuous
 62
     7
370
    50
100
AcDbLine
 10
109.5400136341
 20
192.3014357729
 30
0.0
 11
109.5400136341
 21
189.3014357729
 31
0.0
  0
LINE
  5
7E
330
1F
100
AcDbEntity
  8
0
  6
Continuous
 62
     7
370
    50
100
AcDbLine
 10
118.200267672
 20
192.3014357729
 30
0.0
 11
118.200267672
 21
189.3014357729
 31
0.0
  0
LINE
  5
7F
330
1F
100
AcDbEntity
  8
0
  6
Continuous
 62
     7
370
    50
100
AcDbLine
 10
118.200267672
 20
192.3014357729
 30
0.0
 11
109.5400136341
 21
192.3014357729
 31
0.0
  0
LINE
  5
80
330
1F
100
AcDbEntity
  8
0
  6
Continuous
 62
     7
370
    50
100
AcDbLine
 10
118.200267672
 20
189.3014357729
 30
0.0
 11
109.5400136341
 21
189.3014357729
 31
0.0
  0
LINE
  5
81
330
1F
100
AcDbEntity
  8
0
  6
Continuous
 62
     7
370
    50
100
AcDbLine
 10
109.5400136341
 20
189.3014357729
 30
0.0
 11
109.3235072832
 21
189.3014357729
 31
0.0
  0
LINE
  5
82
330
1F
100
AcDbEntity
  8
0
  6
Continuous
 62
     7
370
    50
100
AcDbLine
 10
84.4252769244
 20
192.3014357729
 30
0.0
 11
84.4252769244
 21
189.3014357729
 31
0.0
  0
LINE
  5
83
330
1F
100
AcDbEntity
  8
0
  6
Continuous
 62
     7
370
    50
100
AcDbLine
 10
93.0855309622
 20
192.3014357729
 30
0.0
 11
84.4252769244
 21
192.3014357729
 31
0.0
  0
LINE
  5
84
330
1F
100
AcDbEntity
  8
0
  6
Continuous
 62
     7
370
    50
100
AcDbLine
 10
93.0855309622
 20
189.3014357729
 30
0.0
 11
84.4252769244
 21
189.3014357729
 31
0.0
  0
LINE
  5
85
330
1F
100
AcDbEntity
  8
0
  6
Continuous
 62
     7
370
    50
100
AcDbLine
 10
118.200267672
 20
328.3014357729
 30
0.0
 11
118.200267672
 21
331.3014357729
 31
0.0
  0
LINE
  5
86
330
1F
100
AcDbEntity
  8
0
  6
Continuous
 62
     7
370
    50
100
AcDbLine
 10
109.5400136341
 20
328.3014357729
 30
0.0
 11
109.5400136341
 21
331.3014357729
 31
0.0
  0
LINE
  5
87
330
1F
100
AcDbEntity
  8
0
  6
Continuous
 62
     7
370
    50
100
AcDbLine
 10
109.5400136341
 20
328.3014357729
 30
0.0
 11
118.200267672
 21
328.3014357729
 31
0.0
  0
LINE
  5
88
330
1F
100
AcDbEntity
  8
0
  6
Continuous
 62
     7
370
    50
100
AcDbLine
 10
109.5400136341
 20
331.3014357729
 30
0.0
 11
118.200267672
 21
331.3014357729
 31
0.0
  0
LINE
  5
89
330
1F
100
AcDbEntity
  8
0
  6
Continuous
 62
     7
370
    50
100
AcDbLine
 10
93.0855309622
 20
328.3014357729
 30
0.0
 11
93.0855309622
 21
331.3014357729
 31
0.0
  0
LINE
  5
8A
330
1F
100
AcDbEntity
  8
0
  6
Continuous
 62
     7
370
    50
100
AcDbLine
 10
84.4252769244
 20
328.3014357729
 30
0.0
 11
84.4252769244
 21
331.3014357729
 31
0.0
  0
LINE
  5
8B
330
1F
100
AcDbEntity
  8
0
  6
Continuous
 62
     7
370
    50
100
AcDbLine
 10
84.4252769244
 20
328.3014357729
 30
0.0
 11
93.0855309622
 21
328.3014357729
 31
0.0
  0
LINE
  5
8C
330
1F
100
AcDbEntity
  8
0
  6
Continuous
 62
     7
370
    50
100
AcDbLine
 10
84.4252769244
 20
331.3014357729
 30
0.0
 11
93.0855309622
 21
331.3014357729
 31
0.0
  0
LINE
  5
8D
330
1F
100
AcDbEntity
  8
0
  6
Continuous
 62
     7
370
    50
100
AcDbLine
 10
109.3235072832
 20
331.3014357729
 30
0.0
 11
109.5400136341
 21
331.3014357729
 31
0.0
  0
LINE
  5
8E
330
1F
100
AcDbEntity
  8
0
  6
Continuous
 62
     7
370
    50
100
AcDbLine
 10
93.0855309622
 20
331.3014357729
 30
0.0
 11
93.3020373132
 21
331.3014357729
 31
0.0
  0
LINE
  5
8F
330
1F
100
AcDbEntity
  8
0
  6
Continuous
 62
     7
370
    50
100
AcDbLine
 10
98.9977722982
 20
335.3014357729
 30
0.0
 11
98.9977722982
 21
185.3014357729
 31
0.0
  0
LINE
  5
90
330
1F
100
AcDbEntity
  8
0
  6
Continuous
 62
     7
370
    50
100
AcDbLine
 10
103.6277722982
 20
335.3014357729
 30
0.0
 11
98.9977722982
 21
335.3014357729
 31
0.0
  0
LINE
  5
91
330
1F
100
AcDbEntity
  8
0
  6
Continuous
 62
     7
370
    50
100
AcDbLine
 10
103.6277722982
 20
335.3014357729
 30
0.0
 11
103.6277722982
 21
185.3014357729
 31
0.0
  0
LINE
  5
92
330
1F
100
AcDbEntity
  8
0
  6
Continuous
 62
     7
370
    50
100
AcDbLine
 10
103.6277722982
 20
185.3014357729
 30
0.0
 11
98.9977722982
 21
185.3014357729
 31
0.0
  0
LINE
  5
93
330
1F
100
AcDbEntity
  8
0
  6
Continuous
 62
     7
370
    50
100
AcDbLine
 10
84.2087705734
 20
192.3014357729
 30
0.0
 11
93.3020373132
 21
192.3014357729
 31
0.0
  0
LINE
  5
94
330
1F
100
AcDbEntity
  8
0
  6
Continuous
 62
     7
370
    50
100
AcDbLine
 10
84.2087705734
 20
192.3014357729
 30
0.0
 11
84.2087705734
 21
187.3014357729
 31
0.0
  0
ARC
  5
95
330
1F
100
AcDbEntity
  8
0
  6
Continuous
 62
     7
370
    50
100
AcDbCircle
 10
82.3323821986
 20
187.1764357729
 30
0.0
 40
1.880547349399524
100
AcDbArc
 50
274.4019496523
 51
3.8112610495
  0
LINE
  5
96
330
1F
100
AcDbEntity
  8
0
  6
Continuous
 62
     7
370
    50
100
AcDbLine
 10
82.4767197659
 20
185.3014357729
 30
0.0
 11
78.5130355884
 21
185.3014357729
 31
0.0
  0
LINE
  5
97
330
1F
100
AcDbEntity
  8
0
  6
Continuous
 62
     7
370
    50
100
AcDbLine
 10
78.5130355884
 20
335.3014357729
 30
0.0
 11
78.5130355884
 21
185.3014357729
 31
0.0
  0
LINE
  5
98
330
1F
100
AcDbEntity
  8
0
  6
Continuous
 62
     7
370
    50
100
AcDbLine
 10
82.4767197659
 20
335.3014357729
 30
0.0
 11
78.5130355884
 21
335.3014357729
 31
0.0
  0
ARC
  5
99
330
1F
100
AcDbEntity
  8
0
  6
Continuous
 62
     7
370
    50
100
AcDbCircle
 10
82.3323821986
 20
333.4264357729
 30
0.0
 40
1.880547349399639
100
AcDbArc
 50
356.1887389505
 51
85.5980503477
  0
LINE
  5
9A
330
1F
100
AcDbEntity
  8
0
  6
Continuous
 62
     7
370
    50
100
AcDbLine
 10
84.2087705734
 20
328.3014357729
 30
0.0
 11
84.2087705734
 21
333.3014357729
 31
0.0
  0
LINE
  5
9B
330
1F
100
AcDbEntity
  8
0
  6
Continuous
 62
     7
370
    50
100
AcDbLine
 10
84.2087705734
 20
328.3014357729
 30
0.0
 11
93.3020373132
 21
328.3014357729
 31
0.0
  0
LINE
  5
9C
330
1F
100
AcDbEntity
  8
0
  6
Continuous
 62
     7
370
    50
100
AcDbLine
 10
93.3020373132
 20
328.3014357729
 30
0.0
 11
93.3020373132
 21
333.3014357729
 31
0.0
  0
ARC
  5
9D
330
1F
100
AcDbEntity
  8
0
  6
Continuous
 62
     7
370
    50
100
AcDbCircle
 10
95.178425688
 20
333.4264357729
 30
0.0
 40
1.880547349399591
100
AcDbArc
 50
94.4019496523
 51
183.8112610495
  0
LINE
  5
9E
330
1F
100
AcDbEntity
  8
0
  6
Continuous
 62
     7
370
    50
100
AcDbLine
 10
98.9977722982
 20
185.3014357729
 30
0.0
 11
95.0340881207
 21
185.3014357729
 31
0.0
  0
ARC
  5
9F
330
1F
100
AcDbEntity
  8
0
  6
Continuous
 62
     7
370
    50
100
AcDbCircle
 10
95.178425688
 20
187.1764357729
 30
0.0
 40
1.880547349399566
100
AcDbArc
 50
176.1887389505
 51
265.5980503477
  0
LINE
  5
A0
330
1F
100
AcDbEntity
  8
0
  6
Continuous
 62
     7
370
    50
100
AcDbLine
 10
93.3020373132
 20
192.3014357729
 30
0.0
 11
93.3020373132
 21
187.3014357729
 31
0.0
  0
LINE
  5
A1
330
1F
100
AcDbEntity
  8
0
  6
Continuous
 62
     7
370
    50
100
AcDbLine
 10
98.9977722982
 20
335.3014357729
 30
0.0
 11
95.0340881207
 21
335.3014357729
 31
0.0
  0
LINE
  5
A2
330
1F
100
AcDbEntity
  8
0
  6
Continuous
 62
     7
370
    50
100
AcDbLine
 10
109.3235072832
 20
192.3014357729
 30
0.0
 11
118.4167740229
 21
192.3014357729
 31
0.0
  0
LINE
  5
A3
330
1F
100
AcDbEntity
  8
0
  6
Continuous
 62
     7
370
    50
100
AcDbLine
 10
109.3235072832
 20
192.3014357729
 30
0.0
 11
109.3235072832
 21
187.3014357729
 31
0.0
  0
ARC
  5
A4
330
1F
100
AcDbEntity
  8
0
  6
Continuous
 62
     7
370
    50
100
AcDbCircle
 10
107.4471189083
 20
187.1764357729
 30
0.0
 40
1.880547349399551
100
AcDbArc
 50
274.4019496523
 51
3.8112610495
  0
LINE
  5
A5
330
1F
100
AcDbEntity
  8
0
  6
Continuous
 62
     7
370
    50
100
AcDbLine
 10
107.5914564756
 20
185.3014357729
 30
0.0
 11
103.6277722982
 21
185.3014357729
 31
0.0
  0
LINE
  5
A6
330
1F
100
AcDbEntity
  8
0
  6
Continuous
 62
     7
370
    50
100
AcDbLine
 10
107.5914564756
 20
335.3014357729
 30
0.0
 11
103.6277722982
 21
335.3014357729
 31
0.0
  0
ARC
  5
A7
330
1F
100
AcDbEntity
  8
0
  6
Continuous
 62
     7
370
    50
100
AcDbCircle
 10
107.4471189083
 20
333.4264357729
 30
0.0
 40
1.880547349399639
100
AcDbArc
 50
356.1887389505
 51
85.5980503477
  0
LINE
  5
A8
330
1F
100
AcDbEntity
  8
0
  6
Continuous
 62
     7
370
    50
100
AcDbLine
 10
109.3235072832
 20
328.3014357729
 30
0.0
 11
109.3235072832
 21
333.3014357729
 31
0.0
  0
LINE
  5
A9
330
1F
100
AcDbEntity
  8
0
  6
Continuous
 62
     7
370
    50
100
AcDbLine
 10
109.3235072832
 20
328.3014357729
 30
0.0
 11
118.4167740229
 21
328.3014357729
 31
0.0
  0
LINE
  5
AA
330
1F
100
AcDbEntity
  8
0
  6
Continuous
 62
     7
370
    50
100
AcDbLine
 10
118.4167740229
 20
328.3014357729
 30
0.0
 11
118.4167740229
 21
333.3014357729
 31
0.0
  0
ARC
  5
AB
330
1F
100
AcDbEntity
  8
0
  6
Continuous
 62
     7
370
    50
100
AcDbCircle
 10
120.2931623978
 20
333.4264357729
 30
0.0
 40
1.880547349399605
100
AcDbArc
 50
94.4019496523
 51
183.8112610495
  0
LINE
  5
AC
330
1F
100
AcDbEntity
  8
0
  6
Continuous
 62
     7
370
    50
100
AcDbLine
 10
124.1125090079
 20
335.3014357729
 30
0.0
 11
120.1488248305
 21
335.3014357729
 31
0.0
  0
LINE
  5
AD
330
1F
100
AcDbEntity
  8
0
  6
Continuous
 62
     7
370
    50
100
AcDbLine
 10
124.1125090079
 20
335.3014357729
 30
0.0
 11
124.1125090079
 21
185.3014357729
 31
0.0
  0
LINE
  5
AE
330
1F
100
AcDbEntity
  8
0
  6
Continuous
 62
     7
370
    50
100
AcDbLine
 10
124.1125090079
 20
185.3014357729
 30
0.0
 11
120.1488248305
 21
185.3014357729
 31
0.0
  0
ARC
  5
AF
330
1F
100
AcDbEntity
  8
0
  6
Continuous
 62
     7
370
    50
100
AcDbCircle
 10
120.2931623978
 20
187.1764357729
 30
0.0
 40
1.880547349399551
100
AcDbArc
 50
176.1887389505
 51
265.5980503477
  0
LINE
  5
B0
330
1F
100
AcDbEntity
  8
0
  6
Continuous
 62
     7
370
    50
100
AcDbLine
 10
118.4167740229
 20
192.3014357729
 30
0.0
 11
118.4167740229
 21
187.3014357729
 31
0.0
  0
LINE
  5
B1
330
1F
100
AcDbEntity
  8
0
  6
Continuous
 62
     7
370
    50
100
AcDbLine
 10
120.1488248305
 20
185.3014357729
 30
0.0
 11
119.1488248305
 21
185.3014357729
 31
0.0
  0
LINE
  5
B2
330
1F
100
AcDbEntity
  8
0
  6
Continuous
 62
     7
370
    50
100
AcDbLine
 10
117.4167740229
 20
187.3014357729
 30
0.0
 11
118.4167740229
 21
187.3014357729
 31
0.0
  0
ARC
  5
B3
330
1F
100
AcDbEntity
  8
0
  6
Continuous
 62
     7
370
    50
100
AcDbCircle
 10
119.2931623978
 20
187.1764357729
 30
0.0
 40
1.880547349399538
100
AcDbArc
 50
176.1887389505
 51
265.5980503477
  0
LINE
  5
B4
330
1F
100
AcDbEntity
  8
0
  6
Continuous
 62
     7
370
    50
100
AcDbLine
 10
83.4767197659
 20
185.3014357729
 30
0.0
 11
82.4767197659
 21
185.3014357729
 31
0.0
  0
LINE
  5
B5
330
1F
100
AcDbEntity
  8
0
  6
Continuous
 62
     7
370
    50
100
AcDbLine
 10
84.2087705734
 20
187.3014357729
 30
0.0
 11
85.2087705734
 21
187.3014357729
 31
0.0
  0
ARC
  5
B6
330
1F
100
AcDbEntity
  8
0
  6
Continuous
 62
     7
370
    50
100
AcDbCircle
 10
83.3323821986
 20
187.1764357729
 30
0.0
 40
1.880547349399524
100
AcDbArc
 50
274.4019496523
 51
3.8112610495
  0
LINE
  5
B7
330
1F
100
AcDbEntity
  8
0
  6
Continuous
 62
     7
370
    50
100
AcDbLine
 10
118.4167740229
 20
333.3014357729
 30
0.0
 11
117.4167740229
 21
333.3014357729
 31
0.0
  0
LINE
  5
B8
330
1F
100
AcDbEntity
  8
0
  6
Continuous
 62
     7
370
    50
100
AcDbLine
 10
119.1488248305
 20
335.3014357729
 30
0.0
 11
120.1488248305
 21
335.3014357729
 31
0.0
  0
ARC
  5
B9
330
1F
100
AcDbEntity
  8
0
  6
Continuous
 62
     7
370
    50
100
AcDbCircle
 10
119.2931623978
 20
333.4264357729
 30
0.0
 40
1.880547349399638
100
AcDbArc
 50
94.4019496523
 51
183.8112610495
  0
LINE
  5
BA
330
1F
100
AcDbEntity
  8
0
  6
Continuous
 62
     7
370
    50
100
AcDbLine
 10
117.4167740229
 20
189.3014357729
 30
0.0
 11
117.4167740229
 21
187.3014357729
 31
0.0
  0
LINE
  5
BB
330
1F
100
AcDbEntity
  8
0
  6
Continuous
 62
     7
370
    50
100
AcDbLine
 10
85.2087705734
 20
333.3014357729
 30
0.0
 11
84.2087705734
 21
333.3014357729
 31
0.0
  0
LINE
  5
BC
330
1F
100
AcDbEntity
  8
0
  6
Continuous
 62
     7
370
    50
100
AcDbLine
 10
82.4767197659
 20
335.3014357729
 30
0.0
 11
83.4767197659
 21
335.3014357729
 31
0.0
  0
ARC
  5
BD
330
1F
100
AcDbEntity
  8
0
  6
Continuous
 62
     7
370
    50
100
AcDbCircle
 10
83.3323821986
 20
333.4264357729
 30
0.0
 40
1.88054734939958
100
AcDbArc
 50
356.1887389505
 51
85.5980503477
  0
LINE
  5
BE
330
1F
100
AcDbEntity
  8
0
  6
Continuous
 62
     7
370
    50
100
AcDbLine
 10
85.2087705734
 20
189.3014357729
 30
0.0
 11
85.2087705734
 21
187.3014357729
 31
0.0
  0
LINE
  5
BF
330
1F
100
AcDbEntity
  8
0
  6
Continuous
 62
     7
370
    50
100
AcDbLine
 10
85.2087705734
 20
331.3014357729
 30
0.0
 11
85.2087705734
 21
333.3014357729
 31
0.0
  0
LINE
  5
C0
330
1F
100
AcDbEntity
  8
0
  6
Continuous
 62
     7
370
    50
100
AcDbLine
 10
117.4167740229
 20
331.3014357729
 30
0.0
 11
117.4167740229
 21
333.3014357729
 31
0.0
  0
LINE
  5
C1
330
1F
100
AcDbEntity
  8
0
  6
Continuous
 62
     7
370
    50
100
AcDbLine
 10
76.1980355884
 20
335.3014357729
 30
0.0
 11
76.1980355884
 21
185.3014357729
 31
0.0
  0
LINE
  5
C2
330
1F
100
AcDbEntity
  8
0
  6
Continuous
 62
     7
370
    50
100
AcDbLine
 10
78.5130355884
 20
335.3014357729
 30
0.0
 11
76.1980355884
 21
335.3014357729
 31
0.0
  0
LINE
  5
C3
330
1F
100
AcDbEntity
  8
0
  6
Continuous
 62
     7
370
    50
100
AcDbLine
 10
78.5130355884
 20
185.3014357729
 30
0.0
 11
76.1980355884
 21
185.3014357729
 31
0.0
  0
LINE
  5
C4
330
1F
100
AcDbEntity
  8
0
  6
Continuous
 62
     7
370
    50
100
AcDbLine
 10
126.4275090079
 20
335.3014357729
 30
0.0
 11
124.1125090079
 21
335.3014357729
 31
0.0
  0
LINE
  5
C5
330
1F
100
AcDbEntity
  8
0
  6
Continuous
 62
     7
370
    50
100
AcDbLine
 10
126.4275090079
 20
335.3014357729
 30
0.0
 11
126.4275090079
 21
185.3014357729
 31
0.0
  0
LINE
  5
C6
330
1F
100
AcDbEntity
  8
0
  6
Continuous
 62
     7
370
    50
100
AcDbLine
 10
126.4275090079
 20
185.3014357729
 30
0.0
 11
124.1125090079
 21
185.3014357729
 31
0.0
  0
LINE
  5
C7
330
1F
100
AcDbEntity
  8
0
  6
Continuous
 62
     7
370
    50
100
AcDbLine
 10
116.7672549701
 20
185.3014357729
 30
0.0
 11
119.1488248305
 21
185.3014357729
 31
0.0
  0
ARC
  5
C8
330
1F
100
AcDbEntity
  8
0
  6
Continuous
 62
     7
370
    50
100
AcDbCircle
 10
116.9939980398
 20
189.7919331162
 30
0.0
 40
4.496218278727592
100
AcDbArc
 50
186.2629234307
 51
267.1093632527
  0
ARC
  5
C9
330
1F
100
AcDbEntity
  8
0
  6
Continuous
 62
     7
370
    50
100
AcDbCircle
 10
117.0772605669
 20
330.7226251833
 30
0.0
 40
4.589292961383584
100
AcDbArc
 50
93.8732650549
 51
172.7544482617
  0
LINE
  5
CA
330
1F
100
AcDbEntity
  8
0
  6
Continuous
 62
     7
370
    50
100
AcDbLine
 10
116.7672549701
 20
335.3014357729
 30
0.0
 11
119.1488248305
 21
335.3014357729
 31
0.0
  0
ARC
  5
CB
330
1F
100
AcDbEntity
  8
0
  6
Continuous
 62
     7
370
    50
100
AcDbCircle
 10
85.5482840294
 20
189.8802463625
 30
0.0
 40
4.589292961383467
100
AcDbArc
 50
273.8732650549
 51
352.7544482617
  0
LINE
  5
CC
330
1F
100
AcDbEntity
  8
0
  6
Continuous
 62
     7
370
    50
100
AcDbLine
 10
83.4767197659
 20
335.3014357729
 30
0.0
 11
85.8582896263
 21
335.3014357729
 31
0.0
  0
ARC
  5
CD
330
1F
100
AcDbEntity
  8
0
  6
Continuous
 62
     7
370
    50
100
AcDbCircle
 10
85.6315465565
 20
330.8109384296
 30
0.0
 40
4.49621827872775
100
AcDbArc
 50
6.2629234307
 51
87.1093632527
  0
LINE
  5
CE
330
1F
100
AcDbEntity
  8
0
  6
Continuous
 62
     7
370
    50
100
AcDbLine
 10
83.4767197659
 20
185.3014357729
 30
0.0
 11
85.8582896263
 21
185.3014357729
 31
0.0
  0
LINE
  5
CF
330
1F
100
AcDbEntity
  8
0
  6
Continuous
 62
     7
370
    50
100
AcDbLine
 10
10.3348706022
 20
335.3014357729
 30
0.0
 11
10.3348706022
 21
185.3014357729
 31
0.0
  0
LINE
  5
D0
330
1F
100
AcDbEntity
  8
0
  6
Continuous
 62
     7
370
    50
100
AcDbLine
 10
43.8686071095
 20
187.3014357729
 30
0.0
 11
33.3686071095
 21
187.3014357729
 31
0.0
  0
LINE
  5
D1
330
1F
100
AcDbEntity
  8
0
  6
Continuous
 62
     7
370
    50
100
AcDbLine
 10
38.6186071095
 20
333.3014357729
 30
0.0
 11
43.8686071095
 21
333.3014357729
 31
0.0
  0
LINE
  5
D2
330
1F
100
AcDbEntity
  8
0
  6
Continuous
 62
     7
370
    50
100
AcDbLine
 10
33.3686071095
 20
333.3014357729
 30
0.0
 11
38.6186071095
 21
333.3014357729
 31
0.0
  0
LINE
  5
D3
330
1F
100
AcDbEntity
  8
0
  6
Continuous
 62
     7
370
    50
100
AcDbLine
 10
33.6186071095
 20
192.3014357729
 30
0.0
 11
33.6186071095
 21
189.3014357729
 31
0.0
  0
LINE
  5
D4
330
1F
100
AcDbEntity
  8
0
  6
Continuous
 62
     7
370
    50
100
AcDbLine
 10
43.6186071095
 20
192.3014357729
 30
0.0
 11
43.6186071095
 21
189.3014357729
 31
0.0
  0
LINE
  5
D5
330
1F
100
AcDbEntity
  8
0
  6
Continuous
 62
     7
370
    50
100
AcDbLine
 10
43.6186071095
 20
189.3014357729
 30
0.0
 11
33.6186071095
 21
189.3014357729
 31
0.0
  0
LINE
  5
D6
330
1F
100
AcDbEntity
  8
0
  6
Continuous
 62
     7
370
    50
100
AcDbLine
 10
43.6186071095
 20
192.3014357729
 30
0.0
 11
33.6186071095
 21
192.3014357729
 31
0.0
  0
LINE
  5
D7
330
1F
100
AcDbEntity
  8
0
  6
Continuous
 62
     7
370
    50
100
AcDbLine
 10
43.8186071095
 20
192.3014357729
 30
0.0
 11
43.8186071095
 21
189.3014357729
 31
0.0
  0
LINE
  5
D8
330
1F
100
AcDbEntity
  8
0
  6
Continuous
 62
     7
370
    50
100
AcDbLine
 10
43.8186071095
 20
189.3014357729
 30
0.0
 11
43.6186071095
 21
189.3014357729
 31
0.0
  0
LINE
  5
D9
330
1F
100
AcDbEntity
  8
0
  6
Continuous
 62
     7
370
    50
100
AcDbLine
 10
33.4186071095
 20
189.3014357729
 30
0.0
 11
33.4186071095
 21
192.3014357729
 31
0.0
  0
LINE
  5
DA
330
1F
100
AcDbEntity
  8
0
  6
Continuous
 62
     7
370
    50
100
AcDbLine
 10
33.6186071095
 20
189.3014357729
 30
0.0
 11
33.4186071095
 21
189.3014357729
 31
0.0
  0
LINE
  5
DB
330
1F
100
AcDbEntity
  8
0
  6
Continuous
 62
     7
370
    50
100
AcDbLine
 10
43.8686071095
 20
189.3014357729
 30
0.0
 11
43.8186071095
 21
189.3014357729
 31
0.0
  0
LINE
  5
DC
330
1F
100
AcDbEntity
  8
0
  6
Continuous
 62
     7
370
    50
100
AcDbLine
 10
33.4186071095
 20
189.3014357729
 30
0.0
 11
33.3686071095
 21
189.3014357729
 31
0.0
  0
LINE
  5
DD
330
1F
100
AcDbEntity
  8
0
  6
Continuous
 62
     7
370
    50
100
AcDbLine
 10
19.3686071095
 20
192.3014357729
 30
0.0
 11
19.3686071095
 21
189.3014357729
 31
0.0
  0
LINE
  5
DE
330
1F
100
AcDbEntity
  8
0
  6
Continuous
 62
     7
370
    50
100
AcDbLine
 10
19.4936071095
 20
189.3014357729
 30
0.0
 11
19.3686071095
 21
189.3014357729
 31
0.0
  0
LINE
  5
DF
330
1F
100
AcDbEntity
  8
0
  6
Continuous
 62
     7
370
    50
100
AcDbLine
 10
14.3686071095
 20
192.3014357729
 30
0.0
 11
14.3686071095
 21
189.3014357729
 31
0.0
  0
LINE
  5
E0
330
1F
100
AcDbEntity
  8
0
  6
Continuous
 62
     7
370
    50
100
AcDbLine
 10
19.3686071095
 20
189.3014357729
 30
0.0
 11
14.3686071095
 21
189.3014357729
 31
0.0
  0
LINE
  5
E1
330
1F
100
AcDbEntity
  8
0
  6
Continuous
 62
     7
370
    50
100
AcDbLine
 10
19.3686071095
 20
192.3014357729
 30
0.0
 11
14.3686071095
 21
192.3014357729
 31
0.0
  0
LINE
  5
E2
330
1F
100
AcDbEntity
  8
0
  6
Continuous
 62
     7
370
    50
100
AcDbLine
 10
43.6186071095
 20
328.3014357729
 30
0.0
 11
43.6186071095
 21
331.3014357729
 31
0.0
  0
LINE
  5
E3
330
1F
100
AcDbEntity
  8
0
  6
Continuous
 62
     7
370
    50
100
AcDbLine
 10
33.6186071095
 20
328.3014357729
 30
0.0
 11
33.6186071095
 21
331.3014357729
 31
0.0
  0
LINE
  5
E4
330
1F
100
AcDbEntity
  8
0
  6
Continuous
 62
     7
370
    50
100
AcDbLine
 10
33.6186071095
 20
328.3014357729
 30
0.0
 11
43.6186071095
 21
328.3014357729
 31
0.0
  0
LINE
  5
E5
330
1F
100
AcDbEntity
  8
0
  6
Continuous
 62
     7
370
    50
100
AcDbLine
 10
33.6186071095
 20
331.3014357729
 30
0.0
 11
43.6186071095
 21
331.3014357729
 31
0.0
  0
LINE
  5
E6
330
1F
100
AcDbEntity
  8
0
  6
Continuous
 62
     7
370
    50
100
AcDbLine
 10
43.8186071095
 20
331.3014357729
 30
0.0
 11
43.8186071095
 21
328.3014357729
 31
0.0
  0
LINE
  5
E7
330
1F
100
AcDbEntity
  8
0
  6
Continuous
 62
     7
370
    50
100
AcDbLine
 10
43.6186071095
 20
331.3014357729
 30
0.0
 11
43.8186071095
 21
331.3014357729
 31
0.0
  0
LINE
  5
E8
330
1F
100
AcDbEntity
  8
0
  6
Continuous
 62
     7
370
    50
100
AcDbLine
 10
33.4186071095
 20
328.3014357729
 30
0.0
 11
33.4186071095
 21
331.3014357729
 31
0.0
  0
LINE
  5
E9
330
1F
100
AcDbEntity
  8
0
  6
Continuous
 62
     7
370
    50
100
AcDbLine
 10
33.4186071095
 20
331.3014357729
 30
0.0
 11
33.6186071095
 21
331.3014357729
 31
0.0
  0
LINE
  5
EA
330
1F
100
AcDbEntity
  8
0
  6
Continuous
 62
     7
370
    50
100
AcDbLine
 10
43.8186071095
 20
331.3014357729
 30
0.0
 11
43.8686071095
 21
331.3014357729
 31
0.0
  0
LINE
  5
EB
330
1F
100
AcDbEntity
  8
0
  6
Continuous
 62
     7
370
    50
100
AcDbLine
 10
33.3686071095
 20
331.3014357729
 30
0.0
 11
33.4186071095
 21
331.3014357729
 31
0.0
  0
LINE
  5
EC
330
1F
100
AcDbEntity
  8
0
  6
Continuous
 62
     7
370
    50
100
AcDbLine
 10
19.3686071095
 20
328.3014357729
 30
0.0
 11
19.3686071095
 21
331.3014357729
 31
0.0
  0
LINE
  5
ED
330
1F
100
AcDbEntity
  8
0
  6
Continuous
 62
     7
370
    50
100
AcDbLine
 10
19.3686071095
 20
331.3014357729
 30
0.0
 11
19.4936071095
 21
331.3014357729
 31
0.0
  0
LINE
  5
EE
330
1F
100
AcDbEntity
  8
0
  6
Continuous
 62
     7
370
    50
100
AcDbLine
 10
14.3686071095
 20
328.3014357729
 30
0.0
 11
14.3686071095
 21
331.3014357729
 31
0.0
  0
LINE
  5
EF
330
1F
100
AcDbEntity
  8
0
  6
Continuous
 62
     7
370
    50
100
AcDbLine
 10
14.3686071095
 20
328.3014357729
 30
0.0
 11
19.3686071095
 21
328.3014357729
 31
0.0
  0
LINE
  5
F0
330
1F
100
AcDbEntity
  8
0
  6
Continuous
 62
     7
370
    50
100
AcDbLine
 10
14.3686071095
 20
331.3014357729
 30
0.0
 11
19.3686071095
 21
331.3014357729
 31
0.0
  0
LINE
  5
F1
330
1F
100
AcDbEntity
  8
0
  6
Continuous
 62
     7
370
    50
100
AcDbLine
 10
50.4454753632
 20
335.3014357729
 30
0.0
 11
50.4454753632
 21
185.3014357729
 31
0.0
  0
LINE
  5
F2
330
1F
100
AcDbEntity
  8
0
  6
Continuous
 62
     7
370
    50
100
AcDbLine
 10
54.4551729827
 20
335.3014357729
 30
0.0
 11
54.4551729827
 21
185.3014357729
 31
0.0
  0
LINE
  5
F3
330
1F
100
AcDbEntity
  8
0
  6
Continuous
 62
     7
370
    50
100
AcDbLine
 10
54.4551729827
 20
185.3014357729
 30
0.0
 11
50.4454753632
 21
185.3014357729
 31
0.0
  0
LINE
  5
F4
330
1F
100
AcDbEntity
  8
0
  6
Continuous
 62
     7
370
    50
100
AcDbLine
 10
54.4551729827
 20
335.3014357729
 30
0.0
 11
50.4454753632
 21
335.3014357729
 31
0.0
  0
LINE
  5
F5
330
1F
100
AcDbEntity
  8
0
  6
Continuous
 62
     7
370
    50
100
AcDbLine
 10
33.3686071095
 20
192.3014357729
 30
0.0
 11
43.8686071095
 21
192.3014357729
 31
0.0
  0
LINE
  5
F6
330
1F
100
AcDbEntity
  8
0
  6
Continuous
 62
     7
370
    50
100
AcDbLine
 10
33.3686071095
 20
192.3014357729
 30
0.0
 11
33.3686071095
 21
187.3014357729
 31
0.0
  0
ARC
  5
F7
330
1F
100
AcDbEntity
  8
0
  6
Continuous
 62
     7
370
    50
100
AcDbCircle
 10
31.3686071095
 20
187.3014357729
 30
0.0
 40
2.0
100
AcDbArc
 50
270.0
 51
0.0
  0
LINE
  5
F8
330
1F
100
AcDbEntity
  8
0
  6
Continuous
 62
     7
370
    50
100
AcDbLine
 10
31.3686071095
 20
185.3014357729
 30
0.0
 11
26.7917388558
 21
185.3014357729
 31
0.0
  0
LINE
  5
F9
330
1F
100
AcDbEntity
  8
0
  6
Continuous
 62
     7
370
    50
100
AcDbLine
 10
26.7917388558
 20
335.3014357729
 30
0.0
 11
26.7917388558
 21
185.3014357729
 31
0.0
  0
LINE
  5
FA
330
1F
100
AcDbEntity
  8
0
  6
Continuous
 62
     7
370
    50
100
AcDbLine
 10
31.3686071095
 20
335.3014357729
 30
0.0
 11
26.7917388558
 21
335.3014357729
 31
0.0
  0
ARC
  5
FB
330
1F
100
AcDbEntity
  8
0
  6
Continuous
 62
     7
370
    50
100
AcDbCircle
 10
31.3686071095
 20
333.3014357729
 30
0.0
 40
2.0
100
AcDbArc
 50
0.0
 51
90.0
  0
LINE
  5
FC
330
1F
100
AcDbEntity
  8
0
  6
Continuous
 62
     7
370
    50
100
AcDbLine
 10
33.3686071095
 20
328.3014357729
 30
0.0
 11
33.3686071095
 21
333.3014357729
 31
0.0
  0
LINE
  5
FD
330
1F
100
AcDbEntity
  8
0
  6
Continuous
 62
     7
370
    50
100
AcDbLine
 10
33.3686071095
 20
328.3014357729
 30
0.0
 11
43.8686071095
 21
328.3014357729
 31
0.0
  0
LINE
  5
FE
330
1F
100
AcDbEntity
  8
0
  6
Continuous
 62
     7
370
    50
100
AcDbLine
 10
43.8686071095
 20
328.3014357729
 30
0.0
 11
43.8686071095
 21
333.3014357729
 31
0.0
  0
ARC
  5
FF
330
1F
100
AcDbEntity
  8
0
  6
Continuous
 62
     7
370
    50
100
AcDbCircle
 10
45.8686071095
 20
333.3014357729
 30
0.0
 40
2.0
100
AcDbArc
 50
90.0
 51
180.0
  0
LINE
  5
100
330
1F
100
AcDbEntity
  8
0
  6
Continuous
 62
     7
370
    50
100
AcDbLine
 10
50.4454753632
 20
335.3014357729
 30
0.0
 11
45.8686071095
 21
335.3014357729
 31
0.0
  0
LINE
  5
101
330
1F
100
AcDbEntity
  8
0
  6
Continuous
 62
     7
370
    50
100
AcDbLine
 10
50.4454753632
 20
185.3014357729
 30
0.0
 11
45.8686071095
 21
185.3014357729
 31
0.0
  0
ARC
  5
102
330
1F
100
AcDbEntity
  8
0
  6
Continuous
 62
     7
370
    50
100
AcDbCircle
 10
45.8686071095
 20
187.3014357729
 30
0.0
 40
2.0
100
AcDbArc
 50
180.0
 51
270.0
  0
LINE
  5
103
330
1F
100
AcDbEntity
  8
0
  6
Continuous
 62
     7
370
    50
100
AcDbLine
 10
43.8686071095
 20
192.3014357729
 30
0.0
 11
43.8686071095
 21
187.3014357729
 31
0.0
  0
LINE
  5
104
330
1F
100
AcDbEntity
  8
0
  6
Continuous
 62
     7
370
    50
100
AcDbLine
 10
22.7820412363
 20
335.3014357729
 30
0.0
 11
22.7820412363
 21
185.3014357729
 31
0.0
  0
LINE
  5
105
330
1F
100
AcDbEntity
  8
0
  6
Continuous
 62
     7
370
    50
100
AcDbLine
 10
26.7917388558
 20
335.3014357729
 30
0.0
 11
22.7820412363
 21
335.3014357729
 31
0.0
  0
LINE
  5
106
330
1F
100
AcDbEntity
  8
0
  6
Continuous
 62
     7
370
    50
100
AcDbLine
 10
26.7917388558
 20
185.3014357729
 30
0.0
 11
22.7820412363
 21
185.3014357729
 31
0.0
  0
LWPOLYLINE
  5
107
330
1F
100
AcDbEntity
  8
0
  6
Continuous
 62
     7
370
    50
100
AcDbPolyline
 90
        9
 70
   128
 43
0.0
 10
58.1186071095
 20
185.3014357729
 10
58.6063329145
 20
185.3975093709
 10
59.0753156904
 20
185.6820381103
 10
59.5075326921
 20
186.1440877114
 10
59.8863740625
 20
186.765901867
 10
60.1972811403
 20
187.5235846078
 10
60.4283059408
 20
188.3880186111
 10
60.5705703105
 20
189.3259841628
 10
60.6186071095
 20
190.3014357729
  0
LINE
  5
108
330
1F
100
AcDbEntity
  8
0
  6
Continuous
 62
     7
370
    50
100
AcDbLine
 10
58.1186071095
 20
185.3014357729
 30
0.0
 11
54.4551729827
 21
185.3014357729
 31
0.0
  0
LINE
  5
109
330
1F
100
AcDbEntity
  8
0
  6
Continuous
 62
     7
370
    50
100
AcDbLine
 10
58.1186071095
 20
335.3014357729
 30
0.0
 11
54.4551729827
 21
335.3014357729
 31
0.0
  0
LWPOLYLINE
  5
10A
330
1F
100
AcDbEntity
  8
0
  6
Continuous
 62
     7
370
    50
100
AcDbPolyline
 90
        9
 70
   128
 43
0.0
 10
60.6186071095
 20
330.3014357729
 10
60.5705703105
 20
331.276887383
 10
60.4283059408
 20
332.2148529347
 10
60.1972811403
 20
333.079286938
 10
59.8863740625
 20
333.8369696788
 10
59.5075326921
 20
334.4587838344
 10
59.0753156904
 20
334.9208334355
 10
58.6063329145
 20
335.2053621749
 10
58.1186071095
 20
335.3014357729
  0
LINE
  5
10B
330
1F
100
AcDbEntity
  8
0
  6
Continuous
 62
     7
370
    50
100
AcDbLine
 10
60.6186071095
 20
330.3014357729
 30
0.0
 11
60.6186071095
 21
190.3014357729
 31
0.0
  0
LINE
  5
10C
330
1F
100
AcDbEntity
  8
0
  6
Continuous
 62
     7
370
    50
100
AcDbLine
 10
14.2436071095
 20
192.3014357729
 30
0.0
 11
19.4936071095
 21
192.3014357729
 31
0.0
  0
LINE
  5
10D
330
1F
100
AcDbEntity
  8
0
  6
Continuous
 62
     7
370
    50
100
AcDbLine
 10
14.2436071095
 20
192.3014357729
 30
0.0
 11
14.2436071095
 21
187.3014357729
 31
0.0
  0
LWPOLYLINE
  5
10E
330
1F
100
AcDbEntity
  8
0
  6
Continuous
 62
     7
370
    50
100
AcDbPolyline
 90
        9
 70
   128
 43
0.0
 10
13.2436071095
 20
185.3014357729
 10
13.4386974315
 20
185.3398652121
 10
13.6262905419
 20
185.4536767079
 10
13.7991773425
 20
185.6384965483
 10
13.9507138907
 20
185.8872222105
 10
14.0750767218
 20
186.1902953069
 10
14.167486642
 20
186.5360689082
 10
14.2243923899
 20
186.9112551289
 10
14.2436071095
 20
187.3014357729
  0
LINE
  5
10F
330
1F
100
AcDbEntity
  8
0
  6
Continuous
 62
     7
370
    50
100
AcDbLine
 10
13.2436071095
 20
185.3014357729
 30
0.0
 11
10.9551729827
 21
185.3014357729
 31
0.0
  0
LINE
  5
110
330
1F
100
AcDbEntity
  8
0
  6
Continuous
 62
     7
370
    50
100
AcDbLine
 10
10.9551729827
 20
335.3014357729
 30
0.0
 11
10.9551729827
 21
185.3014357729
 31
0.0
  0
LINE
  5
111
330
1F
100
AcDbEntity
  8
0
  6
Continuous
 62
     7
370
    50
100
AcDbLine
 10
13.2436071095
 20
335.3014357729
 30
0.0
 11
10.9551729827
 21
335.3014357729
 31
0.0
  0
LWPOLYLINE
  5
112
330
1F
100
AcDbEntity
  8
0
  6
Continuous
 62
     7
370
    50
100
AcDbPolyline
 90
        9
 70
   128
 43
0.0
 10
14.2436071095
 20
333.3014357729
 10
14.2243923899
 20
333.6916164169
 10
14.167486642
 20
334.0668026376
 10
14.0750767218
 20
334.4125762389
 10
13.9507138907
 20
334.7156493353
 10
13.7991773425
 20
334.9643749975
 10
13.6262905419
 20
335.1491948379
 10
13.4386974315
 20
335.2630063337
 10
13.2436071095
 20
335.3014357729
  0
LINE
  5
113
330
1F
100
AcDbEntity
  8
0
  6
Continuous
 62
     7
370
    50
100
AcDbLine
 10
14.2436071095
 20
328.3014357729
 30
0.0
 11
14.2436071095
 21
333.3014357729
 31
0.0
  0
LINE
  5
114
330
1F
100
AcDbEntity
  8
0
  6
Continuous
 62
     7
370
    50
100
AcDbLine
 10
14.2436071095
 20
328.3014357729
 30
0.0
 11
19.4936071095
 21
328.3014357729
 31
0.0
  0
LINE
  5
115
330
1F
100
AcDbEntity
  8
0
  6
Continuous
 62
     7
370
    50
100
AcDbLine
 10
19.4936071095
 20
328.3014357729
 30
0.0
 11
19.4936071095
 21
333.3014357729
 31
0.0
  0
LWPOLYLINE
  5
116
330
1F
100
AcDbEntity
  8
0
  6
Continuous
 62
     7
370
    50
100
AcDbPolyline
 90
        9
 70
   128
 43
0.0
 10
20.4936071095
 20
335.3014357729
 10
20.2985167875
 20
335.2630063337
 10
20.1109236771
 20
335.1491948379
 10
19.9380368765
 20
334.9643749975
 10
19.7865003283
 20
334.7156493353
 10
19.6621374972
 20
334.4125762389
 10
19.569727577
 20
334.0668026376
 10
19.5128218291
 20
333.6916164169
 10
19.4936071095
 20
333.3014357729
  0
LWPOLYLINE
  5
117
330
1F
100
AcDbEntity
  8
0
  6
Continuous
 62
     7
370
    50
100
AcDbPolyline
 90
        9
 70
   128
 43
0.0
 10
19.4936071095
 20
187.3014357729
 10
19.5128218291
 20
186.9112551289
 10
19.569727577
 20
186.5360689082
 10
19.6621374972
 20
186.1902953069
 10
19.7865003283
 20
185.8872222105
 10
19.9380368765
 20
185.6384965483
 10
20.1109236771
 20
185.4536767079
 10
20.2985167875
 20
185.3398652121
 10
20.4936071095
 20
185.3014357729
  0
LINE
  5
118
330
1F
100
AcDbEntity
  8
0
  6
Continuous
 62
     7
370
    50
100
AcDbLine
 10
19.4936071095
 20
192.3014357729
 30
0.0
 11
19.4936071095
 21
187.3014357729
 31
0.0
  0
LINE
  5
119
330
1F
100
AcDbEntity
  8
0
  6
Continuous
 62
     7
370
    50
100
AcDbLine
 10
22.7820412363
 20
335.3014357729
 30
0.0
 11
20.4936071095
 21
335.3014357729
 31
0.0
  0
LINE
  5
11A
330
1F
100
AcDbEntity
  8
0
  6
Continuous
 62
     7
370
    50
100
AcDbLine
 10
22.7820412363
 20
185.3014357729
 30
0.0
 11
20.4936071095
 21
185.3014357729
 31
0.0
  0
LINE
  5
11B
330
1F
100
AcDbEntity
  8
0
  6
Continuous
 62
     7
370
    50
100
AcDbLine
 10
15.9756579171
 20
333.3014357729
 30
0.0
 11
14.2436071095
 21
333.3014357729
 31
0.0
  0
LINE
  5
11C
330
1F
100
AcDbEntity
  8
0
  6
Continuous
 62
     7
370
    50
100
AcDbLine
 10
15.9756579171
 20
331.3014357729
 30
0.0
 11
15.9756579171
 21
333.3014357729
 31
0.0
  0
LINE
  5
11D
330
1F
100
AcDbEntity
  8
0
  6
Continuous
 62
     7
370
    50
100
AcDbLine
 10
14.9756579171
 20
185.3014357729
 30
0.0
 11
13.2436071095
 21
185.3014357729
 31
0.0
  0
LINE
  5
11E
330
1F
100
AcDbEntity
  8
0
  6
Continuous
 62
     7
370
    50
100
AcDbLine
 10
14.2436071095
 20
187.3014357729
 30
0.0
 11
15.9756579171
 21
187.3014357729
 31
0.0
  0
LWPOLYLINE
  5
11F
330
1F
100
AcDbEntity
  8
0
  6
Continuous
 62
     7
370
    50
100
AcDbPolyline
 90
        9
 70
   128
 43
0.0
 10
15.9756579171
 20
187.3014357729
 10
15.9564431975
 20
186.9112551289
 10
15.8995374496
 20
186.5360689082
 10
15.8071275294
 20
186.1902953069
 10
15.6827646983
 20
185.8872222105
 10
15.5312281501
 20
185.6384965483
 10
15.3583413494
 20
185.4536767079
 10
15.1707482391
 20
185.3398652121
 10
14.9756579171
 20
185.3014357729
  0
LINE
  5
120
330
1F
100
AcDbEntity
  8
0
  6
Continuous
 62
     7
370
    50
100
AcDbLine
 10
13.2436071095
 20
335.3014357729
 30
0.0
 11
14.9756579171
 21
335.3014357729
 31
0.0
  0
LWPOLYLINE
  5
121
330
1F
100
AcDbEntity
  8
0
  6
Continuous
 62
     7
370
    50
100
AcDbPolyline
 90
        9
 70
   128
 43
0.0
 10
14.9756579171
 20
335.3014357729
 10
15.1707482391
 20
335.2630063337
 10
15.3583413494
 20
335.1491948379
 10
15.5312281501
 20
334.9643749975
 10
15.6827646983
 20
334.7156493353
 10
15.8071275294
 20
334.4125762389
 10
15.8995374496
 20
334.0668026376
 10
15.9564431975
 20
333.6916164169
 10
15.9756579171
 20
333.3014357729
  0
LINE
  5
122
330
1F
100
AcDbEntity
  8
0
  6
Continuous
 62
     7
370
    50
100
AcDbLine
 10
15.9756579171
 20
189.3014357729
 30
0.0
 11
15.9756579171
 21
187.3014357729
 31
0.0
  0
LINE
  5
123
330
1F
100
AcDbEntity
  8
0
  6
Continuous
 62
     7
370
    50
100
AcDbLine
 10
10.9551729827
 20
335.3014357729
 30
0.0
 11
10.3348706022
 21
335.3014357729
 31
0.0
  0
LINE
  5
124
330
1F
100
AcDbEntity
  8
0
  6
Continuous
 62
     7
370
    50
100
AcDbLine
 10
10.9551729827
 20
185.3014357729
 30
0.0
 11
10.3348706022
 21
185.3014357729
 31
0.0
  0
CIRCLE
  5
125
330
1F
100
AcDbEntity
  8
0
  6
Continuous
 62
     7
370
    50
100
AcDbCircle
 10
101.3127722982
 20
377.2197430854
 30
0.0
 40
5.750000000000185
  0
CIRCLE
  5
126
330
1F
100
AcDbEntity
  8
0
  6
Continuous
 62
     7
370
    50
100
AcDbCircle
 10
101.3127722982
 20
377.2197430854
 30
0.0
 40
9.500000000000298
  0
CIRCLE
  5
127
330
1F
100
AcDbEntity
  8
0
  6
Continuous
 62
     7
370
    50
100
AcDbCircle
 10
101.3127722982
 20
377.2197430854
 30
0.0
 40
4.250000000000142
  0
LINE
  5
128
330
1F
100
AcDbEntity
  8
0
  6
Continuous
 62
     7
370
    50
100
AcDbLine
 10
80.1980355884
 20
363.2970933546
 30
0.0
 11
90.4611753092
 21
357.3716668741
 31
0.0
  0
ARC
  5
129
330
1F
100
AcDbEntity
  8
0
  6
Continuous
 62
     7
370
    50
100
AcDbCircle
 10
81.6980355884
 20
365.895169566
 30
0.0
 40
3.000000000000148
100
AcDbArc
 50
180.0
 51
240.0
  0
LINE
  5
12A
330
1F
100
AcDbEntity
  8
0
  6
Continuous
 62
     7
370
    50
100
AcDbLine
 10
78.6980355884
 20
372.0197430854
 30
0.0
 11
78.6980355884
 21
365.895169566
 31
0.0
  0
ARC
  5
12B
330
1F
100
AcDbEntity
  8
0
  6
Continuous
 62
     7
370
    50
100
AcDbCircle
 10
78.4980355884
 20
372.0197430854
 30
0.0
 40
0.2000000000000028
100
AcDbArc
 50
0.0
 51
90.0
  0
LINE
  5
12C
330
1F
100
AcDbEntity
  8
0
  6
Continuous
 62
     7
370
    50
100
AcDbLine
 10
76.1980355884
 20
372.2197430854
 30
0.0
 11
78.4980355884
 21
372.2197430854
 31
0.0
  0
LINE
  5
12D
330
1F
100
AcDbEntity
  8
0
  6
Continuous
 62
     7
370
    50
100
AcDbLine
 10
76.1980355884
 20
382.2197430854
 30
0.0
 11
76.1980355884
 21
372.2197430854
 31
0.0
  0
LINE
  5
12E
330
1F
100
AcDbEntity
  8
0
  6
Continuous
 62
     7
370
    50
100
AcDbLine
 10
78.4980355884
 20
382.2197430854
 30
0.0
 11
76.1980355884
 21
382.2197430854
 31
0.0
  0
ARC
  5
12F
330
1F
100
AcDbEntity
  8
0
  6
Continuous
 62
     7
370
    50
100
AcDbCircle
 10
78.4980355884
 20
382.4197430854
 30
0.0
 40
0.2000000000000455
100
AcDbArc
 50
270.0
 51
0.0
  0
LINE
  5
130
330
1F
100
AcDbEntity
  8
0
  6
Continuous
 62
     7
370
    50
100
AcDbLine
 10
78.6980355884
 20
388.5443166049
 30
0.0
 11
78.6980355884
 21
382.4197430854
 31
0.0
  0
ARC
  5
131
330
1F
100
AcDbEntity
  8
0
  6
Continuous
 62
     7
370
    50
100
AcDbCircle
 10
81.6980355884
 20
388.5443166049
 30
0.0
 40
3.000000000000197
100
AcDbArc
 50
120.0
 51
180.0
  0
LINE
  5
132
330
1F
100
AcDbEntity
  8
0
  6
Continuous
 62
     7
370
    50
100
AcDbLine
 10
85.5020718436
 20
394.204679576
 30
0.0
 11
80.1980355884
 21
391.1423928163
 31
0.0
  0
ARC
  5
133
330
1F
100
AcDbEntity
  8
0
  6
Continuous
 62
     7
370
    50
100
AcDbCircle
 10
85.4020718436
 20
394.3778846567
 30
0.0
 40
0.1999999999999944
100
AcDbArc
 50
300.0
 51
30.0
  0
LINE
  5
134
330
1F
100
AcDbEntity
  8
0
  6
Continuous
 62
     7
370
    50
100
AcDbLine
 10
84.4252769244
 20
396.4697430854
 30
0.0
 11
85.5752769244
 21
394.4778846567
 31
0.0
  0
LINE
  5
135
330
1F
100
AcDbEntity
  8
0
  6
Continuous
 62
     7
370
    50
100
AcDbLine
 10
93.0855309622
 20
401.4697430854
 30
0.0
 11
84.4252769244
 21
396.4697430854
 31
0.0
  0
LINE
  5
136
330
1F
100
AcDbEntity
  8
0
  6
Continuous
 62
     7
370
    50
100
AcDbLine
 10
94.2355309622
 20
399.4778846567
 30
0.0
 11
93.0855309622
 21
401.4697430854
 31
0.0
  0
ARC
  5
137
330
1F
100
AcDbEntity
  8
0
  6
Continuous
 62
     7
370
    50
100
AcDbCircle
 10
94.408736043
 20
399.5778846567
 30
0.0
 40
0.1999999999999911
100
AcDbArc
 50
210.0
 51
300.0
  0
LINE
  5
138
330
1F
100
AcDbEntity
  8
0
  6
Continuous
 62
     7
370
    50
100
AcDbLine
 10
99.8127722982
 20
402.4669663357
 30
0.0
 11
94.508736043
 21
399.404679576
 31
0.0
  0
ARC
  5
139
330
1F
100
AcDbEntity
  8
0
  6
Continuous
 62
     7
370
    50
100
AcDbCircle
 10
101.3127722982
 20
399.8688901244
 30
0.0
 40
3.000000000000422
100
AcDbArc
 50
60.0
 51
120.0
  0
LINE
  5
13A
330
1F
100
AcDbEntity
  8
0
  6
Continuous
 62
     7
370
    50
100
AcDbLine
 10
108.1168085534
 20
399.404679576
 30
0.0
 11
102.8127722982
 21
402.4669663357
 31
0.0
  0
ARC
  5
13B
330
1F
100
AcDbEntity
  8
0
  6
Continuous
 62
     7
370
    50
100
AcDbCircle
 10
108.2168085534
 20
399.5778846567
 30
0.0
 40
0.1999999999999911
100
AcDbArc
 50
240.0
 51
330.0
  0
LINE
  5
13C
330
1F
100
AcDbEntity
  8
0
  6
Continuous
 62
     7
370
    50
100
AcDbLine
 10
109.5400136341
 20
401.4697430854
 30
0.0
 11
108.3900136341
 21
399.4778846567
 31
0.0
  0
LINE
  5
13D
330
1F
100
AcDbEntity
  8
0
  6
Continuous
 62
     7
370
    50
100
AcDbLine
 10
118.200267672
 20
396.4697430854
 30
0.0
 11
109.5400136341
 21
401.4697430854
 31
0.0
  0
LINE
  5
13E
330
1F
100
AcDbEntity
  8
0
  6
Continuous
 62
     7
370
    50
100
AcDbLine
 10
117.050267672
 20
394.4778846567
 30
0.0
 11
118.200267672
 21
396.4697430854
 31
0.0
  0
ARC
  5
13F
330
1F
100
AcDbEntity
  8
0
  6
Continuous
 62
     7
370
    50
100
AcDbCircle
 10
117.2234727527
 20
394.3778846567
 30
0.0
 40
0.199999999999984
100
AcDbArc
 50
150.0
 51
240.0
  0
LINE
  5
140
330
1F
100
AcDbEntity
  8
0
  6
Continuous
 62
     7
370
    50
100
AcDbLine
 10
122.4275090079
 20
391.1423928163
 30
0.0
 11
117.1234727527
 21
394.204679576
 31
0.0
  0
ARC
  5
141
330
1F
100
AcDbEntity
  8
0
  6
Continuous
 62
     7
370
    50
100
AcDbCircle
 10
120.9275090079
 20
388.5443166049
 30
0.0
 40
3.000000000000197
100
AcDbArc
 50
0.0
 51
60.0
  0
LINE
  5
142
330
1F
100
AcDbEntity
  8
0
  6
Continuous
 62
     7
370
    50
100
AcDbLine
 10
123.9275090079
 20
382.4197430854
 30
0.0
 11
123.9275090079
 21
388.5443166049
 31
0.0
  0
ARC
  5
143
330
1F
100
AcDbEntity
  8
0
  6
Continuous
 62
     7
370
    50
100
AcDbCircle
 10
124.1275090079
 20
382.4197430854
 30
0.0
 40
0.2000000000000455
100
AcDbArc
 50
180.0
 51
270.0
  0
LINE
  5
144
330
1F
100
AcDbEntity
  8
0
  6
Continuous
 62
     7
370
    50
100
AcDbLine
 10
126.4275090079
 20
382.2197430854
 30
0.0
 11
124.1275090079
 21
382.2197430854
 31
0.0
  0
LINE
  5
145
330
1F
100
AcDbEntity
  8
0
  6
Continuous
 62
     7
370
    50
100
AcDbLine
 10
126.4275090079
 20
372.2197430854
 30
0.0
 11
126.4275090079
 21
382.2197430854
 31
0.0
  0
LINE
  5
146
330
1F
100
AcDbEntity
  8
0
  6
Continuous
 62
     7
370
    50
100
AcDbLine
 10
124.1275090079
 20
372.2197430854
 30
0.0
 11
126.4275090079
 21
372.2197430854
 31
0.0
  0
ARC
  5
147
330
1F
100
AcDbEntity
  8
0
  6
Continuous
 62
     7
370
    50
100
AcDbCircle
 10
124.1275090079
 20
372.0197430854
 30
0.0
 40
0.2000000000000028
100
AcDbArc
 50
90.0
 51
180.0
  0
LINE
  5
148
330
1F
100
AcDbEntity
  8
0
  6
Continuous
 62
     7
370
    50
100
AcDbLine
 10
123.9275090079
 20
365.895169566
 30
0.0
 11
123.9275090079
 21
372.0197430854
 31
0.0
  0
ARC
  5
149
330
1F
100
AcDbEntity
  8
0
  6
Continuous
 62
     7
370
    50
100
AcDbCircle
 10
120.9275090079
 20
365.895169566
 30
0.0
 40
3.000000000000141
100
AcDbArc
 50
300.0
 51
0.0
  0
LINE
  5
14A
330
1F
100
AcDbEntity
  8
0
  6
Continuous
 62
     7
370
    50
100
AcDbLine
 10
91.9611753092
 20
356.9697430854
 30
0.0
 11
110.6643692871
 21
356.9697430854
 31
0.0
  0
ARC
  5
14B
330
1F
100
AcDbEntity
  8
0
  6
Continuous
 62
     7
370
    50
100
AcDbCircle
 10
110.6643692871
 20
359.9697430854
 30
0.0
 40
3.000000000000057
100
AcDbArc
 50
270.0
 51
300.0
  0
LINE
  5
14C
330
1F
100
AcDbEntity
  8
0
  6
Continuous
 62
     7
370
    50
100
AcDbLine
 10
112.1643692871
 20
357.3716668741
 30
0.0
 11
122.4275090079
 21
363.2970933546
 31
0.0
  0
ARC
  5
14D
330
1F
100
AcDbEntity
  8
0
  6
Continuous
 62
     7
370
    50
100
AcDbCircle
 10
91.9611753092
 20
359.9697430854
 30
0.0
 40
3.000000000000057
100
AcDbArc
 50
240.0
 51
270.0
  0
LINE
  5
14E
330
1F
100
AcDbEntity
  8
0
  6
Continuous
 62
     7
370
    50
100
AcDbLine
 10
117.7672549701
 20
357.7197430854
 30
0.0
 11
113.4371279512
 21
355.2197430854
 31
0.0
  0
LINE
  5
14F
330
1F
100
AcDbEntity
  8
0
  6
Continuous
 62
     7
370
    50
100
AcDbLine
 10
113.4371279512
 20
355.2197430854
 30
0.0
 11
112.4371279512
 21
356.951793893
 31
0.0
  0
LINE
  5
150
330
1F
100
AcDbEntity
  8
0
  6
Continuous
 62
     7
370
    50
100
AcDbLine
 10
112.4371279512
 20
356.951793893
 30
0.0
 11
116.7672549701
 21
359.451793893
 31
0.0
  0
LINE
  5
151
330
1F
100
AcDbEntity
  8
0
  6
Continuous
 62
     7
370
    50
100
AcDbLine
 10
85.8582896263
 20
359.451793893
 30
0.0
 11
90.1884166452
 21
356.951793893
 31
0.0
  0
LINE
  5
152
330
1F
100
AcDbEntity
  8
0
  6
Continuous
 62
     7
370
    50
100
AcDbLine
 10
90.1884166452
 20
356.951793893
 30
0.0
 11
89.1884166452
 21
355.2197430854
 31
0.0
  0
LINE
  5
153
330
1F
100
AcDbEntity
  8
0
  6
Continuous
 62
     7
370
    50
100
AcDbLine
 10
89.1884166452
 20
355.2197430854
 30
0.0
 11
84.8582896263
 21
357.7197430854
 31
0.0
  0
LINE
  5
154
330
1F
100
AcDbEntity
  8
0
  6
Continuous
 62
     7
370
    50
100
AcDbLine
 10
116.7672549701
 20
359.451793893
 30
0.0
 11
123.1125090079
 21
363.1152280198
 31
0.0
  0
LINE
  5
155
330
1F
100
AcDbEntity
  8
0
  6
Continuous
 62
     7
370
    50
100
AcDbLine
 10
117.7672549701
 20
357.7197430854
 30
0.0
 11
124.1125090079
 21
361.3831772123
 31
0.0
  0
LINE
  5
156
330
1F
100
AcDbEntity
  8
0
  6
Continuous
 62
     7
370
    50
100
AcDbLine
 10
79.5130355884
 20
363.1152280198
 30
0.0
 11
85.8582896263
 21
359.451793893
 31
0.0
  0
LINE
  5
157
330
1F
100
AcDbEntity
  8
0
  6
Continuous
 62
     7
370
    50
100
AcDbLine
 10
78.5130355884
 20
361.3831772123
 30
0.0
 11
84.8582896263
 21
357.7197430854
 31
0.0
  0
ARC
  5
158
330
1F
100
AcDbEntity
  8
0
  6
Continuous
 62
     7
370
    50
100
AcDbCircle
 10
121.7975090079
 20
365.3928748318
 30
0.0
 40
2.629999999999995
100
AcDbArc
 50
300.0
 51
0.0
  0
ARC
  5
159
330
1F
100
AcDbEntity
  8
0
  6
Continuous
 62
     7
370
    50
100
AcDbCircle
 10
121.7975090079
 20
365.3928748318
 30
0.0
 40
4.629999999999995
100
AcDbArc
 50
300.0
 51
0.0
  0
ARC
  5
15A
330
1F
100
AcDbEntity
  8
0
  6
Continuous
 62
     7
370
    50
100
AcDbCircle
 10
80.8280355884
 20
365.3928748318
 30
0.0
 40
2.63000000000001
100
AcDbArc
 50
180.0
 51
240.0
  0
ARC
  5
15B
330
1F
100
AcDbEntity
  8
0
  6
Continuous
 62
     7
370
    50
100
AcDbCircle
 10
80.8280355884
 20
365.3928748318
 30
0.0
 40
4.629999999999995
100
AcDbArc
 50
180.0
 51
240.0
  0
LINE
  5
15C
330
1F
100
AcDbEntity
  8
0
  6
Continuous
 62
     7
370
    50
100
AcDbLine
 10
126.4275090079
 20
365.3928748318
 30
0.0
 11
126.4275090079
 21
369.9697430854
 31
0.0
  0
LINE
  5
15D
330
1F
100
AcDbEntity
  8
0
  6
Continuous
 62
     7
370
    50
100
AcDbLine
 10
124.4275090079
 20
365.3928748318
 30
0.0
 11
124.4275090079
 21
369.9697430854
 31
0.0
  0
LINE
  5
15E
330
1F
100
AcDbEntity
  8
0
  6
Continuous
 62
     7
370
    50
100
AcDbLine
 10
76.1980355884
 20
369.9697430854
 30
0.0
 11
76.1980355884
 21
365.3928748318
 31
0.0
  0
LINE
  5
15F
330
1F
100
AcDbEntity
  8
0
  6
Continuous
 62
     7
370
    50
100
AcDbLine
 10
78.1980355884
 20
369.9697430854
 30
0.0
 11
78.1980355884
 21
365.3928748318
 31
0.0
  0
LINE
  5
160
330
1F
100
AcDbEntity
  8
0
  6
Continuous
 62
     7
370
    50
100
AcDbLine
 10
124.4275090079
 20
371.9697430854
 30
0.0
 11
126.4275090079
 21
371.9697430854
 31
0.0
  0
LINE
  5
161
330
1F
100
AcDbEntity
  8
0
  6
Continuous
 62
     7
370
    50
100
AcDbLine
 10
126.4275090079
 20
371.9697430854
 30
0.0
 11
126.4275090079
 21
369.9697430854
 31
0.0
  0
LINE
  5
162
330
1F
100
AcDbEntity
  8
0
  6
Continuous
 62
     7
370
    50
100
AcDbLine
 10
124.4275090079
 20
369.9697430854
 30
0.0
 11
124.4275090079
 21
371.9697430854
 31
0.0
  0
LINE
  5
163
330
1F
100
AcDbEntity
  8
0
  6
Continuous
 62
     7
370
    50
100
AcDbLine
 10
76.1980355884
 20
371.9697430854
 30
0.0
 11
78.1980355884
 21
371.9697430854
 31
0.0
  0
LINE
  5
164
330
1F
100
AcDbEntity
  8
0
  6
Continuous
 62
     7
370
    50
100
AcDbLine
 10
76.1980355884
 20
369.9697430854
 30
0.0
 11
76.1980355884
 21
371.9697430854
 31
0.0
  0
LINE
  5
165
330
1F
100
AcDbEntity
  8
0
  6
Continuous
 62
     7
370
    50
100
AcDbLine
 10
78.1980355884
 20
371.9697430854
 30
0.0
 11
78.1980355884
 21
369.9697430854
 31
0.0
  0
LINE
  5
166
330
1F
100
AcDbEntity
  8
0
  6
Continuous
 62
     7
370
    50
100
AcDbLine
 10
78.1980355884
 20
382.4697430854
 30
0.0
 11
76.1980355884
 21
382.4697430854
 31
0.0
  0
LINE
  5
167
330
1F
100
AcDbEntity
  8
0
  6
Continuous
 62
     7
370
    50
100
AcDbLine
 10
76.1980355884
 20
382.4697430854
 30
0.0
 11
76.1980355884
 21
384.4697430854
 31
0.0
  0
LINE
  5
168
330
1F
100
AcDbEntity
  8
0
  6
Continuous
 62
     7
370
    50
100
AcDbLine
 10
78.1980355884
 20
384.4697430854
 30
0.0
 11
78.1980355884
 21
382.4697430854
 31
0.0
  0
LINE
  5
169
330
1F
100
AcDbEntity
  8
0
  6
Continuous
 62
     7
370
    50
100
AcDbLine
 10
126.4275090079
 20
382.4697430854
 30
0.0
 11
124.4275090079
 21
382.4697430854
 31
0.0
  0
LINE
  5
16A
330
1F
100
AcDbEntity
  8
0
  6
Continuous
 62
     7
370
    50
100
AcDbLine
 10
126.4275090079
 20
384.4697430854
 30
0.0
 11
126.4275090079
 21
382.4697430854
 31
0.0
  0
LINE
  5
16B
330
1F
100
AcDbEntity
  8
0
  6
Continuous
 62
     7
370
    50
100
AcDbLine
 10
124.4275090079
 20
382.4697430854
 30
0.0
 11
124.4275090079
 21
384.4697430854
 31
0.0
  0
LINE
  5
16C
330
1F
100
AcDbEntity
  8
0
  6
Continuous
 62
     7
370
    50
100
AcDbLine
 10
126.4275090079
 20
384.4697430854
 30
0.0
 11
126.4275090079
 21
389.0466113391
 31
0.0
  0
LINE
  5
16D
330
1F
100
AcDbEntity
  8
0
  6
Continuous
 62
     7
370
    50
100
AcDbLine
 10
124.4275090079
 20
384.4697430854
 30
0.0
 11
124.4275090079
 21
389.0466113391
 31
0.0
  0
LINE
  5
16E
330
1F
100
AcDbEntity
  8
0
  6
Continuous
 62
     7
370
    50
100
AcDbLine
 10
76.1980355884
 20
389.0466113391
 30
0.0
 11
76.1980355884
 21
384.4697430854
 31
0.0
  0
LINE
  5
16F
330
1F
100
AcDbEntity
  8
0
  6
Continuous
 62
     7
370
    50
100
AcDbLine
 10
78.1980355884
 20
389.0466113391
 30
0.0
 11
78.1980355884
 21
384.4697430854
 31
0.0
  0
ARC
  5
170
330
1F
100
AcDbEntity
  8
0
  6
Continuous
 62
     7
370
    50
100
AcDbCircle
 10
80.8280355884
 20
389.0466113391
 30
0.0
 40
2.630000000000026
100
AcDbArc
 50
120.0
 51
180.0
  0
ARC
  5
171
330
1F
100
AcDbEntity
  8
0
  6
Continuous
 62
     7
370
    50
100
AcDbCircle
 10
80.8280355884
 20
389.0466113391
 30
0.0
 40
4.630000000000043
100
AcDbArc
 50
120.0
 51
180.0
  0
ARC
  5
172
330
1F
100
AcDbEntity
  8
0
  6
Continuous
 62
     7
370
    50
100
AcDbCircle
 10
121.7975090079
 20
389.0466113391
 30
0.0
 40
2.630000000000033
100
AcDbArc
 50
0.0
 51
60.0
  0
ARC
  5
173
330
1F
100
AcDbEntity
  8
0
  6
Continuous
 62
     7
370
    50
100
AcDbCircle
 10
121.7975090079
 20
389.0466113391
 30
0.0
 40
4.630000000000043
100
AcDbArc
 50
0.0
 51
60.0
  0
LINE
  5
174
330
1F
100
AcDbEntity
  8
0
  6
Continuous
 62
     7
370
    50
100
AcDbLine
 10
82.4767197659
 20
395.3447430854
 30
0.0
 11
78.5130355884
 21
393.0563089586
 31
0.0
  0
LINE
  5
175
330
1F
100
AcDbEntity
  8
0
  6
Continuous
 62
     7
370
    50
100
AcDbLine
 10
83.4767197659
 20
393.6126922779
 30
0.0
 11
79.5130355884
 21
391.3242581511
 31
0.0
  0
LINE
  5
176
330
1F
100
AcDbEntity
  8
0
  6
Continuous
 62
     7
370
    50
100
AcDbLine
 10
82.4767197659
 20
395.3447430854
 30
0.0
 11
84.2087705734
 21
396.3447430854
 31
0.0
  0
LINE
  5
177
330
1F
100
AcDbEntity
  8
0
  6
Continuous
 62
     7
370
    50
100
AcDbLine
 10
84.2087705734
 20
396.3447430854
 30
0.0
 11
85.2087705734
 21
394.6126922779
 31
0.0
  0
LINE
  5
178
330
1F
100
AcDbEntity
  8
0
  6
Continuous
 62
     7
370
    50
100
AcDbLine
 10
85.2087705734
 20
394.6126922779
 30
0.0
 11
83.4767197659
 21
393.6126922779
 31
0.0
  0
LINE
  5
179
330
1F
100
AcDbEntity
  8
0
  6
Continuous
 62
     7
370
    50
100
AcDbLine
 10
124.1125090079
 20
393.0563089586
 30
0.0
 11
120.1488248305
 21
395.3447430854
 31
0.0
  0
LINE
  5
17A
330
1F
100
AcDbEntity
  8
0
  6
Continuous
 62
     7
370
    50
100
AcDbLine
 10
123.1125090079
 20
391.3242581511
 30
0.0
 11
119.1488248305
 21
393.6126922779
 31
0.0
  0
LINE
  5
17B
330
1F
100
AcDbEntity
  8
0
  6
Continuous
 62
     7
370
    50
100
AcDbLine
 10
117.4167740229
 20
394.6126922779
 30
0.0
 11
118.4167740229
 21
396.3447430854
 31
0.0
  0
LINE
  5
17C
330
1F
100
AcDbEntity
  8
0
  6
Continuous
 62
     7
370
    50
100
AcDbLine
 10
118.4167740229
 20
396.3447430854
 30
0.0
 11
120.1488248305
 21
395.3447430854
 31
0.0
  0
LINE
  5
17D
330
1F
100
AcDbEntity
  8
0
  6
Continuous
 62
     7
370
    50
100
AcDbLine
 10
119.1488248305
 20
393.6126922779
 30
0.0
 11
117.4167740229
 21
394.6126922779
 31
0.0
  0
LINE
  5
17E
330
1F
100
AcDbEntity
  8
0
  6
Continuous
 62
     7
370
    50
100
AcDbLine
 10
99.9977722982
 20
403.1511264047
 30
0.0
 11
96.0340881207
 21
400.8626922779
 31
0.0
  0
LINE
  5
17F
330
1F
100
AcDbEntity
  8
0
  6
Continuous
 62
     7
370
    50
100
AcDbLine
 10
98.9977722982
 20
404.8831772123
 30
0.0
 11
95.0340881207
 21
402.5947430854
 31
0.0
  0
LINE
  5
180
330
1F
100
AcDbEntity
  8
0
  6
Continuous
 62
     7
370
    50
100
AcDbLine
 10
109.3235072832
 20
401.5947430854
 30
0.0
 11
108.3235072832
 21
399.8626922779
 31
0.0
  0
LINE
  5
181
330
1F
100
AcDbEntity
  8
0
  6
Continuous
 62
     7
370
    50
100
AcDbLine
 10
107.5914564756
 20
402.5947430854
 30
0.0
 11
109.3235072832
 21
401.5947430854
 31
0.0
  0
LINE
  5
182
330
1F
100
AcDbEntity
  8
0
  6
Continuous
 62
     7
370
    50
100
AcDbLine
 10
108.3235072832
 20
399.8626922779
 30
0.0
 11
106.5914564756
 21
400.8626922779
 31
0.0
  0
LINE
  5
183
330
1F
100
AcDbEntity
  8
0
  6
Continuous
 62
     7
370
    50
100
AcDbLine
 10
94.3020373132
 20
399.8626922779
 30
0.0
 11
93.3020373132
 21
401.5947430854
 31
0.0
  0
LINE
  5
184
330
1F
100
AcDbEntity
  8
0
  6
Continuous
 62
     7
370
    50
100
AcDbLine
 10
96.0340881207
 20
400.8626922779
 30
0.0
 11
94.3020373132
 21
399.8626922779
 31
0.0
  0
LINE
  5
185
330
1F
100
AcDbEntity
  8
0
  6
Continuous
 62
     7
370
    50
100
AcDbLine
 10
93.3020373132
 20
401.5947430854
 30
0.0
 11
95.0340881207
 21
402.5947430854
 31
0.0
  0
LINE
  5
186
330
1F
100
AcDbEntity
  8
0
  6
Continuous
 62
     7
370
    50
100
AcDbLine
 10
107.5914564756
 20
402.5947430854
 30
0.0
 11
103.6277722982
 21
404.8831772123
 31
0.0
  0
LINE
  5
187
330
1F
100
AcDbEntity
  8
0
  6
Continuous
 62
     7
370
    50
100
AcDbLine
 10
106.5914564756
 20
400.8626922779
 30
0.0
 11
102.6277722982
 21
403.1511264047
 31
0.0
  0
ARC
  5
188
330
1F
100
AcDbEntity
  8
0
  6
Continuous
 62
     7
370
    50
100
AcDbCircle
 10
101.3127722982
 20
400.8734795928
 30
0.0
 40
2.630000000000026
100
AcDbArc
 50
60.0
 51
120.0
  0
ARC
  5
189
330
1F
100
AcDbEntity
  8
0
  6
Continuous
 62
     7
370
    50
100
AcDbCircle
 10
101.3127722982
 20
400.8734795928
 30
0.0
 40
4.629999999999994
100
AcDbArc
 50
60.0
 51
120.0
  0
LINE
  5
18A
330
1F
100
AcDbEntity
  8
0
  6
Continuous
 62
     7
370
    50
100
AcDbLine
 10
76.1980355884
 20
371.9697430854
 30
0.0
 11
76.1980355884
 21
372.2197430854
 31
0.0
  0
LINE
  5
18B
330
1F
100
AcDbEntity
  8
0
  6
Continuous
 62
     7
370
    50
100
AcDbLine
 10
76.1980355884
 20
382.2197430854
 30
0.0
 11
76.1980355884
 21
382.4697430854
 31
0.0
  0
LINE
  5
18C
330
1F
100
AcDbEntity
  8
0
  6
Continuous
 62
     7
370
    50
100
AcDbLine
 10
78.1980355884
 20
382.4697430854
 30
0.0
 11
78.1980355884
 21
382.2197430854
 31
0.0
  0
LINE
  5
18D
330
1F
100
AcDbEntity
  8
0
  6
Continuous
 62
     7
370
    50
100
AcDbLine
 10
78.1980355884
 20
372.2197430854
 30
0.0
 11
78.1980355884
 21
371.9697430854
 31
0.0
  0
LINE
  5
18E
330
1F
100
AcDbEntity
  8
0
  6
Continuous
 62
     7
370
    50
100
AcDbLine
 10
126.4275090079
 20
382.4697430854
 30
0.0
 11
126.4275090079
 21
382.2197430854
 31
0.0
  0
LINE
  5
18F
330
1F
100
AcDbEntity
  8
0
  6
Continuous
 62
     7
370
    50
100
AcDbLine
 10
126.4275090079
 20
372.2197430854
 30
0.0
 11
126.4275090079
 21
371.9697430854
 31
0.0
  0
LINE
  5
190
330
1F
100
AcDbEntity
  8
0
  6
Continuous
 62
     7
370
    50
100
AcDbLine
 10
124.4275090079
 20
371.9697430854
 30
0.0
 11
124.4275090079
 21
372.2197430854
 31
0.0
  0
LINE
  5
191
330
1F
100
AcDbEntity
  8
0
  6
Continuous
 62
     7
370
    50
100
AcDbLine
 10
124.4275090079
 20
382.2197430854
 30
0.0
 11
124.4275090079
 21
382.4697430854
 31
0.0
  0
LINE
  5
192
330
1F
100
AcDbEntity
  8
0
  6
Continuous
 62
     7
370
    50
100
AcDbLine
 10
94.3020373132
 20
399.8626922779
 30
0.0
 11
94.0855309622
 21
399.7376922779
 31
0.0
  0
LINE
  5
193
330
1F
100
AcDbEntity
  8
0
  6
Continuous
 62
     7
370
    50
100
AcDbLine
 10
85.4252769244
 20
394.7376922779
 30
0.0
 11
85.2087705734
 21
394.6126922779
 31
0.0
  0
LINE
  5
194
330
1F
100
AcDbEntity
  8
0
  6
Continuous
 62
     7
370
    50
100
AcDbLine
 10
84.2087705734
 20
396.3447430854
 30
0.0
 11
84.4252769244
 21
396.4697430854
 31
0.0
  0
LINE
  5
195
330
1F
100
AcDbEntity
  8
0
  6
Continuous
 62
     7
370
    50
100
AcDbLine
 10
93.0855309622
 20
401.4697430854
 30
0.0
 11
93.3020373132
 21
401.5947430854
 31
0.0
  0
LINE
  5
196
330
1F
100
AcDbEntity
  8
0
  6
Continuous
 62
     7
370
    50
100
AcDbLine
 10
109.3235072832
 20
401.5947430854
 30
0.0
 11
109.5400136341
 21
401.4697430854
 31
0.0
  0
LINE
  5
197
330
1F
100
AcDbEntity
  8
0
  6
Continuous
 62
     7
370
    50
100
AcDbLine
 10
118.200267672
 20
396.4697430854
 30
0.0
 11
118.4167740229
 21
396.3447430854
 31
0.0
  0
LINE
  5
198
330
1F
100
AcDbEntity
  8
0
  6
Continuous
 62
     7
370
    50
100
AcDbLine
 10
117.4167740229
 20
394.6126922779
 30
0.0
 11
117.200267672
 21
394.7376922779
 31
0.0
  0
LINE
  5
199
330
1F
100
AcDbEntity
  8
0
  6
Continuous
 62
     7
370
    50
100
AcDbLine
 10
108.5400136341
 20
399.7376922779
 30
0.0
 11
108.3235072832
 21
399.8626922779
 31
0.0
  0
CIRCLE
  5
19A
330
1F
100
AcDbEntity
  8
0
  6
Continuous
 62
     7
370
    50
100
AcDbCircle
 10
101.3127722982
 20
145.438517982
 30
0.0
 40
5.750000000000185
  0
CIRCLE
  5
19B
330
1F
100
AcDbEntity
  8
0
  6
Continuous
 62
     7
370
    50
100
AcDbCircle
 10
101.3127722982
 20
145.438517982
 30
0.0
 40
9.500000000000313
  0
CIRCLE
  5
19C
330
1F
100
AcDbEntity
  8
0
  6
Continuous
 62
     7
370
    50
100
AcDbCircle
 10
101.3127722982
 20
145.438517982
 30
0.0
 40
4.250000000000142
  0
ARC
  5
19D
330
1F
100
AcDbEntity
  8
0
  6
Continuous
 62
     7
370
    50
100
AcDbCircle
 10
110.6643692871
 20
162.688517982
 30
0.0
 40
3.0
100
AcDbArc
 50
60.0
 51
90.0
  0
LINE
  5
19E
330
1F
100
AcDbEntity
  8
0
  6
Continuous
 62
     7
370
    50
100
AcDbLine
 10
122.4275090079
 20
159.3611677128
 30
0.0
 11
112.1643692871
 21
165.2865941934
 31
0.0
  0
ARC
  5
19F
330
1F
100
AcDbEntity
  8
0
  6
Continuous
 62
     7
370
    50
100
AcDbCircle
 10
120.9275090079
 20
156.7630915015
 30
0.0
 40
3.000000000000197
100
AcDbArc
 50
0.0
 51
60.0
  0
LINE
  5
1A0
330
1F
100
AcDbEntity
  8
0
  6
Continuous
 62
     7
370
    50
100
AcDbLine
 10
123.9275090079
 20
150.638517982
 30
0.0
 11
123.9275090079
 21
156.7630915015
 31
0.0
  0
ARC
  5
1A1
330
1F
100
AcDbEntity
  8
0
  6
Continuous
 62
     7
370
    50
100
AcDbCircle
 10
124.1275090079
 20
150.638517982
 30
0.0
 40
0.1999999999999886
100
AcDbArc
 50
180.0
 51
270.0
  0
LINE
  5
1A2
330
1F
100
AcDbEntity
  8
0
  6
Continuous
 62
     7
370
    50
100
AcDbLine
 10
126.4275090079
 20
150.438517982
 30
0.0
 11
124.1275090079
 21
150.438517982
 31
0.0
  0
LINE
  5
1A3
330
1F
100
AcDbEntity
  8
0
  6
Continuous
 62
     7
370
    50
100
AcDbLine
 10
126.4275090079
 20
140.438517982
 30
0.0
 11
126.4275090079
 21
150.438517982
 31
0.0
  0
LINE
  5
1A4
330
1F
100
AcDbEntity
  8
0
  6
Continuous
 62
     7
370
    50
100
AcDbLine
 10
124.1275090079
 20
140.438517982
 30
0.0
 11
126.4275090079
 21
140.438517982
 31
0.0
  0
ARC
  5
1A5
330
1F
100
AcDbEntity
  8
0
  6
Continuous
 62
     7
370
    50
100
AcDbCircle
 10
124.1275090079
 20
140.238517982
 30
0.0
 40
0.2000000000000171
100
AcDbArc
 50
90.0
 51
180.0
  0
LINE
  5
1A6
330
1F
100
AcDbEntity
  8
0
  6
Continuous
 62
     7
370
    50
100
AcDbLine
 10
123.9275090079
 20
134.1139444626
 30
0.0
 11
123.9275090079
 21
140.238517982
 31
0.0
  0
ARC
  5
1A7
330
1F
100
AcDbEntity
  8
0
  6
Continuous
 62
     7
370
    50
100
AcDbCircle
 10
120.9275090079
 20
134.1139444626
 30
0.0
 40
3.000000000000222
100
AcDbArc
 50
300.0
 51
0.0
  0
LINE
  5
1A8
330
1F
100
AcDbEntity
  8
0
  6
Continuous
 62
     7
370
    50
100
AcDbLine
 10
117.1234727527
 20
128.4535814915
 30
0.0
 11
122.4275090079
 21
131.5158682512
 31
0.0
  0
ARC
  5
1A9
330
1F
100
AcDbEntity
  8
0
  6
Continuous
 62
     7
370
    50
100
AcDbCircle
 10
117.2234727527
 20
128.2803764107
 30
0.0
 40
0.1999999999999983
100
AcDbArc
 50
120.0
 51
210.0
  0
LINE
  5
1AA
330
1F
100
AcDbEntity
  8
0
  6
Continuous
 62
     7
370
    50
100
AcDbLine
 10
118.200267672
 20
126.188517982
 30
0.0
 11
117.050267672
 21
128.1803764107
 31
0.0
  0
LINE
  5
1AB
330
1F
100
AcDbEntity
  8
0
  6
Continuous
 62
     7
370
    50
100
AcDbLine
 10
109.5400136341
 20
121.188517982
 30
0.0
 11
118.200267672
 21
126.188517982
 31
0.0
  0
LINE
  5
1AC
330
1F
100
AcDbEntity
  8
0
  6
Continuous
 62
     7
370
    50
100
AcDbLine
 10
108.3900136341
 20
123.1803764107
 30
0.0
 11
109.5400136341
 21
121.188517982
 31
0.0
  0
ARC
  5
1AD
330
1F
100
AcDbEntity
  8
0
  6
Continuous
 62
     7
370
    50
100
AcDbCircle
 10
108.2168085534
 20
123.0803764107
 30
0.0
 40
0.2000000000000035
100
AcDbArc
 50
30.0
 51
120.0
  0
LINE
  5
1AE
330
1F
100
AcDbEntity
  8
0
  6
Continuous
 62
     7
370
    50
100
AcDbLine
 10
102.8127722982
 20
120.1912947318
 30
0.0
 11
108.1168085534
 21
123.2535814915
 31
0.0
  0
ARC
  5
1AF
330
1F
100
AcDbEntity
  8
0
  6
Continuous
 62
     7
370
    50
100
AcDbCircle
 10
101.3127722982
 20
122.7893709431
 30
0.0
 40
3.000000000000435
100
AcDbArc
 50
240.0
 51
300.0
  0
LINE
  5
1B0
330
1F
100
AcDbEntity
  8
0
  6
Continuous
 62
     7
370
    50
100
AcDbLine
 10
94.508736043
 20
123.2535814915
 30
0.0
 11
99.8127722982
 21
120.1912947318
 31
0.0
  0
ARC
  5
1B1
330
1F
100
AcDbEntity
  8
0
  6
Continuous
 62
     7
370
    50
100
AcDbCircle
 10
94.408736043
 20
123.0803764107
 30
0.0
 40
0.2000000000000035
100
AcDbArc
 50
60.0
 51
150.0
  0
LINE
  5
1B2
330
1F
100
AcDbEntity
  8
0
  6
Continuous
 62
     7
370
    50
100
AcDbLine
 10
93.0855309622
 20
121.188517982
 30
0.0
 11
94.2355309622
 21
123.1803764107
 31
0.0
  0
LINE
  5
1B3
330
1F
100
AcDbEntity
  8
0
  6
Continuous
 62
     7
370
    50
100
AcDbLine
 10
84.4252769244
 20
126.188517982
 30
0.0
 11
93.0855309622
 21
121.188517982
 31
0.0
  0
LINE
  5
1B4
330
1F
100
AcDbEntity
  8
0
  6
Continuous
 62
     7
370
    50
100
AcDbLine
 10
85.5752769244
 20
128.1803764107
 30
0.0
 11
84.4252769244
 21
126.188517982
 31
0.0
  0
ARC
  5
1B5
330
1F
100
AcDbEntity
  8
0
  6
Continuous
 62
     7
370
    50
100
AcDbCircle
 10
85.4020718436
 20
128.2803764107
 30
0.0
 40
0.2000000000000106
100
AcDbArc
 50
330.0
 51
60.0
  0
LINE
  5
1B6
330
1F
100
AcDbEntity
  8
0
  6
Continuous
 62
     7
370
    50
100
AcDbLine
 10
80.1980355884
 20
131.5158682512
 30
0.0
 11
85.5020718436
 21
128.4535814915
 31
0.0
  0
ARC
  5
1B7
330
1F
100
AcDbEntity
  8
0
  6
Continuous
 62
     7
370
    50
100
AcDbCircle
 10
81.6980355884
 20
134.1139444626
 30
0.0
 40
3.000000000000222
100
AcDbArc
 50
180.0
 51
240.0
  0
LINE
  5
1B8
330
1F
100
AcDbEntity
  8
0
  6
Continuous
 62
     7
370
    50
100
AcDbLine
 10
78.6980355884
 20
140.238517982
 30
0.0
 11
78.6980355884
 21
134.1139444626
 31
0.0
  0
ARC
  5
1B9
330
1F
100
AcDbEntity
  8
0
  6
Continuous
 62
     7
370
    50
100
AcDbCircle
 10
78.4980355884
 20
140.238517982
 30
0.0
 40
0.2000000000000171
100
AcDbArc
 50
0.0
 51
90.0
  0
LINE
  5
1BA
330
1F
100
AcDbEntity
  8
0
  6
Continuous
 62
     7
370
    50
100
AcDbLine
 10
76.1980355884
 20
140.438517982
 30
0.0
 11
78.4980355884
 21
140.438517982
 31
0.0
  0
LINE
  5
1BB
330
1F
100
AcDbEntity
  8
0
  6
Continuous
 62
     7
370
    50
100
AcDbLine
 10
76.1980355884
 20
150.438517982
 30
0.0
 11
76.1980355884
 21
140.438517982
 31
0.0
  0
LINE
  5
1BC
330
1F
100
AcDbEntity
  8
0
  6
Continuous
 62
     7
370
    50
100
AcDbLine
 10
78.4980355884
 20
150.438517982
 30
0.0
 11
76.1980355884
 21
150.438517982
 31
0.0
  0
ARC
  5
1BD
330
1F
100
AcDbEntity
  8
0
  6
Continuous
 62
     7
370
    50
100
AcDbCircle
 10
78.4980355884
 20
150.638517982
 30
0.0
 40
0.1999999999999886
100
AcDbArc
 50
270.0
 51
0.0
  0
LINE
  5
1BE
330
1F
100
AcDbEntity
  8
0
  6
Continuous
 62
     7
370
    50
100
AcDbLine
 10
78.6980355884
 20
156.7630915015
 30
0.0
 11
78.6980355884
 21
150.638517982
 31
0.0
  0
ARC
  5
1BF
330
1F
100
AcDbEntity
  8
0
  6
Continuous
 62
     7
370
    50
100
AcDbCircle
 10
81.6980355884
 20
156.7630915015
 30
0.0
 40
3.000000000000197
100
AcDbArc
 50
120.0
 51
180.0
  0
LINE
  5
1C0
330
1F
100
AcDbEntity
  8
0
  6
Continuous
 62
     7
370
    50
100
AcDbLine
 10
90.4611753092
 20
165.2865941934
 30
0.0
 11
80.1980355884
 21
159.3611677128
 31
0.0
  0
ARC
  5
1C1
330
1F
100
AcDbEntity
  8
0
  6
Continuous
 62
     7
370
    50
100
AcDbCircle
 10
91.9611753092
 20
162.688517982
 30
0.0
 40
3.0
100
AcDbArc
 50
90.0
 51
120.0
  0
LINE
  5
1C2
330
1F
100
AcDbEntity
  8
0
  6
Continuous
 62
     7
370
    50
100
AcDbLine
 10
110.6643692871
 20
165.688517982
 30
0.0
 11
91.9611753092
 21
165.688517982
 31
0.0
  0
LINE
  5
1C3
330
1F
100
AcDbEntity
  8
0
  6
Continuous
 62
     7
370
    50
100
AcDbLine
 10
89.1884166452
 20
167.438517982
 30
0.0
 11
90.1884166452
 21
165.7064671745
 31
0.0
  0
LINE
  5
1C4
330
1F
100
AcDbEntity
  8
0
  6
Continuous
 62
     7
370
    50
100
AcDbLine
 10
90.1884166452
 20
165.7064671745
 30
0.0
 11
85.8582896263
 21
163.2064671745
 31
0.0
  0
LINE
  5
1C5
330
1F
100
AcDbEntity
  8
0
  6
Continuous
 62
     7
370
    50
100
AcDbLine
 10
84.8582896263
 20
164.938517982
 30
0.0
 11
89.1884166452
 21
167.438517982
 31
0.0
  0
LINE
  5
1C6
330
1F
100
AcDbEntity
  8
0
  6
Continuous
 62
     7
370
    50
100
AcDbLine
 10
112.4371279512
 20
165.7064671745
 30
0.0
 11
113.4371279512
 21
167.438517982
 31
0.0
  0
LINE
  5
1C7
330
1F
100
AcDbEntity
  8
0
  6
Continuous
 62
     7
370
    50
100
AcDbLine
 10
116.7672549701
 20
163.2064671745
 30
0.0
 11
112.4371279512
 21
165.7064671745
 31
0.0
  0
LINE
  5
1C8
330
1F
100
AcDbEntity
  8
0
  6
Continuous
 62
     7
370
    50
100
AcDbLine
 10
113.4371279512
 20
167.438517982
 30
0.0
 11
117.7672549701
 21
164.938517982
 31
0.0
  0
LINE
  5
1C9
330
1F
100
AcDbEntity
  8
0
  6
Continuous
 62
     7
370
    50
100
AcDbLine
 10
116.7672549701
 20
163.2064671745
 30
0.0
 11
123.1125090079
 21
159.5430330476
 31
0.0
  0
LINE
  5
1CA
330
1F
100
AcDbEntity
  8
0
  6
Continuous
 62
     7
370
    50
100
AcDbLine
 10
117.7672549701
 20
164.938517982
 30
0.0
 11
124.1125090079
 21
161.2750838552
 31
0.0
  0
LINE
  5
1CB
330
1F
100
AcDbEntity
  8
0
  6
Continuous
 62
     7
370
    50
100
AcDbLine
 10
79.5130355884
 20
159.5430330476
 30
0.0
 11
85.8582896263
 21
163.2064671745
 31
0.0
  0
LINE
  5
1CC
330
1F
100
AcDbEntity
  8
0
  6
Continuous
 62
     7
370
    50
100
AcDbLine
 10
78.5130355884
 20
161.2750838552
 30
0.0
 11
84.8582896263
 21
164.938517982
 31
0.0
  0
ARC
  5
1CD
330
1F
100
AcDbEntity
  8
0
  6
Continuous
 62
     7
370
    50
100
AcDbCircle
 10
80.8280355884
 20
157.2653862357
 30
0.0
 40
2.630000000000026
100
AcDbArc
 50
120.0
 51
180.0
  0
ARC
  5
1CE
330
1F
100
AcDbEntity
  8
0
  6
Continuous
 62
     7
370
    50
100
AcDbCircle
 10
80.8280355884
 20
157.2653862357
 30
0.0
 40
4.629999999999995
100
AcDbArc
 50
120.0
 51
180.0
  0
ARC
  5
1CF
330
1F
100
AcDbEntity
  8
0
  6
Continuous
 62
     7
370
    50
100
AcDbCircle
 10
121.7975090079
 20
157.2653862357
 30
0.0
 40
2.630000000000026
100
AcDbArc
 50
0.0
 51
60.0
  0
ARC
  5
1D0
330
1F
100
AcDbEntity
  8
0
  6
Continuous
 62
     7
370
    50
100
AcDbCircle
 10
121.7975090079
 20
157.2653862357
 30
0.0
 40
4.629999999999995
100
AcDbArc
 50
0.0
 51
60.0
  0
LINE
  5
1D1
330
1F
100
AcDbEntity
  8
0
  6
Continuous
 62
     7
370
    50
100
AcDbLine
 10
126.4275090079
 20
157.2653862357
 30
0.0
 11
126.4275090079
 21
152.688517982
 31
0.0
  0
LINE
  5
1D2
330
1F
100
AcDbEntity
  8
0
  6
Continuous
 62
     7
370
    50
100
AcDbLine
 10
124.4275090079
 20
157.2653862357
 30
0.0
 11
124.4275090079
 21
152.688517982
 31
0.0
  0
LINE
  5
1D3
330
1F
100
AcDbEntity
  8
0
  6
Continuous
 62
     7
370
    50
100
AcDbLine
 10
78.1980355884
 20
152.688517982
 30
0.0
 11
78.1980355884
 21
157.2653862357
 31
0.0
  0
LINE
  5
1D4
330
1F
100
AcDbEntity
  8
0
  6
Continuous
 62
     7
370
    50
100
AcDbLine
 10
76.1980355884
 20
152.688517982
 30
0.0
 11
76.1980355884
 21
157.2653862357
 31
0.0
  0
LINE
  5
1D5
330
1F
100
AcDbEntity
  8
0
  6
Continuous
 62
     7
370
    50
100
AcDbLine
 10
126.4275090079
 20
150.688517982
 30
0.0
 11
124.4275090079
 21
150.688517982
 31
0.0
  0
LINE
  5
1D6
330
1F
100
AcDbEntity
  8
0
  6
Continuous
 62
     7
370
    50
100
AcDbLine
 10
126.4275090079
 20
152.688517982
 30
0.0
 11
126.4275090079
 21
150.688517982
 31
0.0
  0
LINE
  5
1D7
330
1F
100
AcDbEntity
  8
0
  6
Continuous
 62
     7
370
    50
100
AcDbLine
 10
124.4275090079
 20
150.688517982
 30
0.0
 11
124.4275090079
 21
152.688517982
 31
0.0
  0
LINE
  5
1D8
330
1F
100
AcDbEntity
  8
0
  6
Continuous
 62
     7
370
    50
100
AcDbLine
 10
78.1980355884
 20
150.688517982
 30
0.0
 11
76.1980355884
 21
150.688517982
 31
0.0
  0
LINE
  5
1D9
330
1F
100
AcDbEntity
  8
0
  6
Continuous
 62
     7
370
    50
100
AcDbLine
 10
78.1980355884
 20
152.688517982
 30
0.0
 11
78.1980355884
 21
150.688517982
 31
0.0
  0
LINE
  5
1DA
330
1F
100
AcDbEntity
  8
0
  6
Continuous
 62
     7
370
    50
100
AcDbLine
 10
76.1980355884
 20
150.688517982
 30
0.0
 11
76.1980355884
 21
152.688517982
 31
0.0
  0
LINE
  5
1DB
330
1F
100
AcDbEntity
  8
0
  6
Continuous
 62
     7
370
    50
100
AcDbLine
 10
76.1980355884
 20
140.188517982
 30
0.0
 11
78.1980355884
 21
140.188517982
 31
0.0
  0
LINE
  5
1DC
330
1F
100
AcDbEntity
  8
0
  6
Continuous
 62
     7
370
    50
100
AcDbLine
 10
78.1980355884
 20
140.188517982
 30
0.0
 11
78.1980355884
 21
138.188517982
 31
0.0
  0
LINE
  5
1DD
330
1F
100
AcDbEntity
  8
0
  6
Continuous
 62
     7
370
    50
100
AcDbLine
 10
76.1980355884
 20
138.188517982
 30
0.0
 11
76.1980355884
 21
140.188517982
 31
0.0
  0
LINE
  5
1DE
330
1F
100
AcDbEntity
  8
0
  6
Continuous
 62
     7
370
    50
100
AcDbLine
 10
124.4275090079
 20
140.188517982
 30
0.0
 11
126.4275090079
 21
140.188517982
 31
0.0
  0
LINE
  5
1DF
330
1F
100
AcDbEntity
  8
0
  6
Continuous
 62
     7
370
    50
100
AcDbLine
 10
126.4275090079
 20
140.188517982
 30
0.0
 11
126.4275090079
 21
138.188517982
 31
0.0
  0
LINE
  5
1E0
330
1F
100
AcDbEntity
  8
0
  6
Continuous
 62
     7
370
    50
100
AcDbLine
 10
124.4275090079
 20
138.188517982
 30
0.0
 11
124.4275090079
 21
140.188517982
 31
0.0
  0
LINE
  5
1E1
330
1F
100
AcDbEntity
  8
0
  6
Continuous
 62
     7
370
    50
100
AcDbLine
 10
78.1980355884
 20
133.6116497284
 30
0.0
 11
78.1980355884
 21
138.188517982
 31
0.0
  0
LINE
  5
1E2
330
1F
100
AcDbEntity
  8
0
  6
Continuous
 62
     7
370
    50
100
AcDbLine
 10
76.1980355884
 20
133.6116497284
 30
0.0
 11
76.1980355884
 21
138.188517982
 31
0.0
  0
LINE
  5
1E3
330
1F
100
AcDbEntity
  8
0
  6
Continuous
 62
     7
370
    50
100
AcDbLine
 10
126.4275090079
 20
138.188517982
 30
0.0
 11
126.4275090079
 21
133.6116497284
 31
0.0
  0
LINE
  5
1E4
330
1F
100
AcDbEntity
  8
0
  6
Continuous
 62
     7
370
    50
100
AcDbLine
 10
124.4275090079
 20
138.188517982
 30
0.0
 11
124.4275090079
 21
133.6116497284
 31
0.0
  0
ARC
  5
1E5
330
1F
100
AcDbEntity
  8
0
  6
Continuous
 62
     7
370
    50
100
AcDbCircle
 10
121.7975090079
 20
133.6116497284
 30
0.0
 40
2.63000000000001
100
AcDbArc
 50
300.0
 51
0.0
  0
ARC
  5
1E6
330
1F
100
AcDbEntity
  8
0
  6
Continuous
 62
     7
370
    50
100
AcDbCircle
 10
121.7975090079
 20
133.6116497284
 30
0.0
 40
4.629999999999995
100
AcDbArc
 50
300.0
 51
0.0
  0
ARC
  5
1E7
330
1F
100
AcDbEntity
  8
0
  6
Continuous
 62
     7
370
    50
100
AcDbCircle
 10
80.8280355884
 20
133.6116497284
 30
0.0
 40
4.630000000000018
100
AcDbArc
 50
180.0
 51
240.0
  0
ARC
  5
1E8
330
1F
100
AcDbEntity
  8
0
  6
Continuous
 62
     7
370
    50
100
AcDbCircle
 10
80.8280355884
 20
133.6116497284
 30
0.0
 40
2.63000000000001
100
AcDbArc
 50
180.0
 51
240.0
  0
LINE
  5
1E9
330
1F
100
AcDbEntity
  8
0
  6
Continuous
 62
     7
370
    50
100
AcDbLine
 10
85.2087705734
 20
128.0455687896
 30
0.0
 11
84.2087705734
 21
126.313517982
 31
0.0
  0
LINE
  5
1EA
330
1F
100
AcDbEntity
  8
0
  6
Continuous
 62
     7
370
    50
100
AcDbLine
 10
84.2087705734
 20
126.313517982
 30
0.0
 11
82.4767197659
 21
127.313517982
 31
0.0
  0
LINE
  5
1EB
330
1F
100
AcDbEntity
  8
0
  6
Continuous
 62
     7
370
    50
100
AcDbLine
 10
83.4767197659
 20
129.0455687896
 30
0.0
 11
85.2087705734
 21
128.0455687896
 31
0.0
  0
LINE
  5
1EC
330
1F
100
AcDbEntity
  8
0
  6
Continuous
 62
     7
370
    50
100
AcDbLine
 10
124.1125090079
 20
129.6019521089
 30
0.0
 11
120.1488248305
 21
127.313517982
 31
0.0
  0
LINE
  5
1ED
330
1F
100
AcDbEntity
  8
0
  6
Continuous
 62
     7
370
    50
100
AcDbLine
 10
123.1125090079
 20
131.3340029164
 30
0.0
 11
119.1488248305
 21
129.0455687896
 31
0.0
  0
LINE
  5
1EE
330
1F
100
AcDbEntity
  8
0
  6
Continuous
 62
     7
370
    50
100
AcDbLine
 10
82.4767197659
 20
127.313517982
 30
0.0
 11
78.5130355884
 21
129.6019521089
 31
0.0
  0
LINE
  5
1EF
330
1F
100
AcDbEntity
  8
0
  6
Continuous
 62
     7
370
    50
100
AcDbLine
 10
83.4767197659
 20
129.0455687896
 30
0.0
 11
79.5130355884
 21
131.3340029164
 31
0.0
  0
LINE
  5
1F0
330
1F
100
AcDbEntity
  8
0
  6
Continuous
 62
     7
370
    50
100
AcDbLine
 10
118.4167740229
 20
126.313517982
 30
0.0
 11
117.4167740229
 21
128.0455687896
 31
0.0
  0
LINE
  5
1F1
330
1F
100
AcDbEntity
  8
0
  6
Continuous
 62
     7
370
    50
100
AcDbLine
 10
117.4167740229
 20
128.0455687896
 30
0.0
 11
119.1488248305
 21
129.0455687896
 31
0.0
  0
LINE
  5
1F2
330
1F
100
AcDbEntity
  8
0
  6
Continuous
 62
     7
370
    50
100
AcDbLine
 10
120.1488248305
 20
127.313517982
 30
0.0
 11
118.4167740229
 21
126.313517982
 31
0.0
  0
LINE
  5
1F3
330
1F
100
AcDbEntity
  8
0
  6
Continuous
 62
     7
370
    50
100
AcDbLine
 10
108.3235072832
 20
122.7955687896
 30
0.0
 11
109.3235072832
 21
121.063517982
 31
0.0
  0
LINE
  5
1F4
330
1F
100
AcDbEntity
  8
0
  6
Continuous
 62
     7
370
    50
100
AcDbLine
 10
109.3235072832
 20
121.063517982
 30
0.0
 11
107.5914564756
 21
120.063517982
 31
0.0
  0
LINE
  5
1F5
330
1F
100
AcDbEntity
  8
0
  6
Continuous
 62
     7
370
    50
100
AcDbLine
 10
106.5914564756
 20
121.7955687896
 30
0.0
 11
108.3235072832
 21
122.7955687896
 31
0.0
  0
LINE
  5
1F6
330
1F
100
AcDbEntity
  8
0
  6
Continuous
 62
     7
370
    50
100
AcDbLine
 10
93.3020373132
 20
121.063517982
 30
0.0
 11
94.3020373132
 21
122.7955687896
 31
0.0
  0
LINE
  5
1F7
330
1F
100
AcDbEntity
  8
0
  6
Continuous
 62
     7
370
    50
100
AcDbLine
 10
95.0340881207
 20
120.063517982
 30
0.0
 11
93.3020373132
 21
121.063517982
 31
0.0
  0
LINE
  5
1F8
330
1F
100
AcDbEntity
  8
0
  6
Continuous
 62
     7
370
    50
100
AcDbLine
 10
94.3020373132
 20
122.7955687896
 30
0.0
 11
96.0340881207
 21
121.7955687896
 31
0.0
  0
LINE
  5
1F9
330
1F
100
AcDbEntity
  8
0
  6
Continuous
 62
     7
370
    50
100
AcDbLine
 10
107.5914564756
 20
120.063517982
 30
0.0
 11
103.6277722982
 21
117.7750838552
 31
0.0
  0
LINE
  5
1FA
330
1F
100
AcDbEntity
  8
0
  6
Continuous
 62
     7
370
    50
100
AcDbLine
 10
106.5914564756
 20
121.7955687896
 30
0.0
 11
102.6277722982
 21
119.5071346628
 31
0.0
  0
LINE
  5
1FB
330
1F
100
AcDbEntity
  8
0
  6
Continuous
 62
     7
370
    50
100
AcDbLine
 10
98.9977722982
 20
117.7750838552
 30
0.0
 11
95.0340881207
 21
120.063517982
 31
0.0
  0
LINE
  5
1FC
330
1F
100
AcDbEntity
  8
0
  6
Continuous
 62
     7
370
    50
100
AcDbLine
 10
99.9977722982
 20
119.5071346628
 30
0.0
 11
96.0340881207
 21
121.7955687896
 31
0.0
  0
ARC
  5
1FD
330
1F
100
AcDbEntity
  8
0
  6
Continuous
 62
     7
370
    50
100
AcDbCircle
 10
101.3127722982
 20
121.7847814747
 30
0.0
 40
2.630000000000013
100
AcDbArc
 50
240.0
 51
300.0
  0
ARC
  5
1FE
330
1F
100
AcDbEntity
  8
0
  6
Continuous
 62
     7
370
    50
100
AcDbCircle
 10
101.3127722982
 20
121.7847814747
 30
0.0
 40
4.630000000000018
100
AcDbArc
 50
240.0
 51
300.0
  0
LINE
  5
1FF
330
1F
100
AcDbEntity
  8
0
  6
Continuous
 62
     7
370
    50
100
AcDbLine
 10
78.1980355884
 20
140.188517982
 30
0.0
 11
78.1980355884
 21
140.438517982
 31
0.0
  0
LINE
  5
200
330
1F
100
AcDbEntity
  8
0
  6
Continuous
 62
     7
370
    50
100
AcDbLine
 10
78.1980355884
 20
150.438517982
 30
0.0
 11
78.1980355884
 21
150.688517982
 31
0.0
  0
LINE
  5
201
330
1F
100
AcDbEntity
  8
0
  6
Continuous
 62
     7
370
    50
100
AcDbLine
 10
76.1980355884
 20
150.688517982
 30
0.0
 11
76.1980355884
 21
150.438517982
 31
0.0
  0
LINE
  5
202
330
1F
100
AcDbEntity
  8
0
  6
Continuous
 62
     7
370
    50
100
AcDbLine
 10
76.1980355884
 20
140.438517982
 30
0.0
 11
76.1980355884
 21
140.188517982
 31
0.0
  0
LINE
  5
203
330
1F
100
AcDbEntity
  8
0
  6
Continuous
 62
     7
370
    50
100
AcDbLine
 10
126.4275090079
 20
140.188517982
 30
0.0
 11
126.4275090079
 21
140.438517982
 31
0.0
  0
LINE
  5
204
330
1F
100
AcDbEntity
  8
0
  6
Continuous
 62
     7
370
    50
100
AcDbLine
 10
126.4275090079
 20
150.438517982
 30
0.0
 11
126.4275090079
 21
150.688517982
 31
0.0
  0
LINE
  5
205
330
1F
100
AcDbEntity
  8
0
  6
Continuous
 62
     7
370
    50
100
AcDbLine
 10
124.4275090079
 20
150.688517982
 30
0.0
 11
124.4275090079
 21
150.438517982
 31
0.0
  0
LINE
  5
206
330
1F
100
AcDbEntity
  8
0
  6
Continuous
 62
     7
370
    50
100
AcDbLine
 10
124.4275090079
 20
140.438517982
 30
0.0
 11
124.4275090079
 21
140.188517982
 31
0.0
  0
LINE
  5
207
330
1F
100
AcDbEntity
  8
0
  6
Continuous
 62
     7
370
    50
100
AcDbLine
 10
84.2087705734
 20
126.313517982
 30
0.0
 11
84.4252769244
 21
126.188517982
 31
0.0
  0
LINE
  5
208
330
1F
100
AcDbEntity
  8
0
  6
Continuous
 62
     7
370
    50
100
AcDbLine
 10
93.0855309622
 20
121.188517982
 30
0.0
 11
93.3020373132
 21
121.063517982
 31
0.0
  0
LINE
  5
209
330
1F
100
AcDbEntity
  8
0
  6
Continuous
 62
     7
370
    50
100
AcDbLine
 10
94.3020373132
 20
122.7955687896
 30
0.0
 11
94.0855309622
 21
122.9205687896
 31
0.0
  0
LINE
  5
20A
330
1F
100
AcDbEntity
  8
0
  6
Continuous
 62
     7
370
    50
100
AcDbLine
 10
85.4252769244
 20
127.9205687896
 30
0.0
 11
85.2087705734
 21
128.0455687896
 31
0.0
  0
LINE
  5
20B
330
1F
100
AcDbEntity
  8
0
  6
Continuous
 62
     7
370
    50
100
AcDbLine
 10
109.3235072832
 20
121.063517982
 30
0.0
 11
109.5400136341
 21
121.188517982
 31
0.0
  0
LINE
  5
20C
330
1F
100
AcDbEntity
  8
0
  6
Continuous
 62
     7
370
    50
100
AcDbLine
 10
118.200267672
 20
126.188517982
 30
0.0
 11
118.4167740229
 21
126.313517982
 31
0.0
  0
LINE
  5
20D
330
1F
100
AcDbEntity
  8
0
  6
Continuous
 62
     7
370
    50
100
AcDbLine
 10
117.4167740229
 20
128.0455687896
 30
0.0
 11
117.200267672
 21
127.9205687896
 31
0.0
  0
LINE
  5
20E
330
1F
100
AcDbEntity
  8
0
  6
Continuous
 62
     7
370
    50
100
AcDbLine
 10
108.5400136341
 20
122.9205687896
 30
0.0
 11
108.3235072832
 21
122.7955687896
 31
0.0
  0
LINE
  5
20F
330
1F
100
AcDbEntity
  8
0
  6
Continuous
 62
     7
370
    50
100
AcDbLine
 10
191.6761760959
 20
185.3014357729
 30
0.0
 11
191.6761760959
 21
335.3014357729
 31
0.0
  0
LINE
  5
210
330
1F
100
AcDbEntity
  8
0
  6
Continuous
 62
     7
370
    50
100
AcDbLine
 10
163.3924395886
 20
187.3014357729
 30
0.0
 11
158.1424395886
 21
187.3014357729
 31
0.0
  0
LINE
  5
211
330
1F
100
AcDbEntity
  8
0
  6
Continuous
 62
     7
370
    50
100
AcDbLine
 10
168.6424395886
 20
187.3014357729
 30
0.0
 11
163.3924395886
 21
187.3014357729
 31
0.0
  0
LINE
  5
212
330
1F
100
AcDbEntity
  8
0
  6
Continuous
 62
     7
370
    50
100
AcDbLine
 10
158.1424395886
 20
333.3014357729
 30
0.0
 11
168.6424395886
 21
333.3014357729
 31
0.0
  0
LINE
  5
213
330
1F
100
AcDbEntity
  8
0
  6
Continuous
 62
     7
370
    50
100
AcDbLine
 10
168.3924395886
 20
192.3014357729
 30
0.0
 11
168.3924395886
 21
189.3014357729
 31
0.0
  0
LINE
  5
214
330
1F
100
AcDbEntity
  8
0
  6
Continuous
 62
     7
370
    50
100
AcDbLine
 10
158.3924395886
 20
192.3014357729
 30
0.0
 11
158.3924395886
 21
189.3014357729
 31
0.0
  0
LINE
  5
215
330
1F
100
AcDbEntity
  8
0
  6
Continuous
 62
     7
370
    50
100
AcDbLine
 10
168.3924395886
 20
189.3014357729
 30
0.0
 11
158.3924395886
 21
189.3014357729
 31
0.0
  0
LINE
  5
216
330
1F
100
AcDbEntity
  8
0
  6
Continuous
 62
     7
370
    50
100
AcDbLine
 10
168.3924395886
 20
192.3014357729
 30
0.0
 11
158.3924395886
 21
192.3014357729
 31
0.0
  0
LINE
  5
217
330
1F
100
AcDbEntity
  8
0
  6
Continuous
 62
     7
370
    50
100
AcDbLine
 10
158.1924395886
 20
189.3014357729
 30
0.0
 11
158.1924395886
 21
192.3014357729
 31
0.0
  0
LINE
  5
218
330
1F
100
AcDbEntity
  8
0
  6
Continuous
 62
     7
370
    50
100
AcDbLine
 10
158.3924395886
 20
189.3014357729
 30
0.0
 11
158.1924395886
 21
189.3014357729
 31
0.0
  0
LINE
  5
219
330
1F
100
AcDbEntity
  8
0
  6
Continuous
 62
     7
370
    50
100
AcDbLine
 10
168.5924395886
 20
192.3014357729
 30
0.0
 11
168.5924395886
 21
189.3014357729
 31
0.0
  0
LINE
  5
21A
330
1F
100
AcDbEntity
  8
0
  6
Continuous
 62
     7
370
    50
100
AcDbLine
 10
168.5924395886
 20
189.3014357729
 30
0.0
 11
168.3924395886
 21
189.3014357729
 31
0.0
  0
LINE
  5
21B
330
1F
100
AcDbEntity
  8
0
  6
Continuous
 62
     7
370
    50
100
AcDbLine
 10
158.1924395886
 20
189.3014357729
 30
0.0
 11
158.1424395886
 21
189.3014357729
 31
0.0
  0
LINE
  5
21C
330
1F
100
AcDbEntity
  8
0
  6
Continuous
 62
     7
370
    50
100
AcDbLine
 10
168.6424395886
 20
189.3014357729
 30
0.0
 11
168.5924395886
 21
189.3014357729
 31
0.0
  0
LINE
  5
21D
330
1F
100
AcDbEntity
  8
0
  6
Continuous
 62
     7
370
    50
100
AcDbLine
 10
182.6424395886
 20
192.3014357729
 30
0.0
 11
182.6424395886
 21
189.3014357729
 31
0.0
  0
LINE
  5
21E
330
1F
100
AcDbEntity
  8
0
  6
Continuous
 62
     7
370
    50
100
AcDbLine
 10
182.6424395886
 20
189.3014357729
 30
0.0
 11
182.5174395886
 21
189.3014357729
 31
0.0
  0
LINE
  5
21F
330
1F
100
AcDbEntity
  8
0
  6
Continuous
 62
     7
370
    50
100
AcDbLine
 10
187.6424395886
 20
192.3014357729
 30
0.0
 11
187.6424395886
 21
189.3014357729
 31
0.0
  0
LINE
  5
220
330
1F
100
AcDbEntity
  8
0
  6
Continuous
 62
     7
370
    50
100
AcDbLine
 10
187.6424395886
 20
189.3014357729
 30
0.0
 11
182.6424395886
 21
189.3014357729
 31
0.0
  0
LINE
  5
221
330
1F
100
AcDbEntity
  8
0
  6
Continuous
 62
     7
370
    50
100
AcDbLine
 10
187.6424395886
 20
192.3014357729
 30
0.0
 11
182.6424395886
 21
192.3014357729
 31
0.0
  0
LINE
  5
222
330
1F
100
AcDbEntity
  8
0
  6
Continuous
 62
     7
370
    50
100
AcDbLine
 10
168.3924395886
 20
328.3014357729
 30
0.0
 11
168.3924395886
 21
331.3014357729
 31
0.0
  0
LINE
  5
223
330
1F
100
AcDbEntity
  8
0
  6
Continuous
 62
     7
370
    50
100
AcDbLine
 10
158.3924395886
 20
328.3014357729
 30
0.0
 11
158.3924395886
 21
331.3014357729
 31
0.0
  0
LINE
  5
224
330
1F
100
AcDbEntity
  8
0
  6
Continuous
 62
     7
370
    50
100
AcDbLine
 10
158.3924395886
 20
328.3014357729
 30
0.0
 11
168.3924395886
 21
328.3014357729
 31
0.0
  0
LINE
  5
225
330
1F
100
AcDbEntity
  8
0
  6
Continuous
 62
     7
370
    50
100
AcDbLine
 10
158.3924395886
 20
331.3014357729
 30
0.0
 11
168.3924395886
 21
331.3014357729
 31
0.0
  0
LINE
  5
226
330
1F
100
AcDbEntity
  8
0
  6
Continuous
 62
     7
370
    50
100
AcDbLine
 10
158.1924395886
 20
328.3014357729
 30
0.0
 11
158.1924395886
 21
331.3014357729
 31
0.0
  0
LINE
  5
227
330
1F
100
AcDbEntity
  8
0
  6
Continuous
 62
     7
370
    50
100
AcDbLine
 10
158.1924395886
 20
331.3014357729
 30
0.0
 11
158.3924395886
 21
331.3014357729
 31
0.0
  0
LINE
  5
228
330
1F
100
AcDbEntity
  8
0
  6
Continuous
 62
     7
370
    50
100
AcDbLine
 10
168.5924395886
 20
331.3014357729
 30
0.0
 11
168.5924395886
 21
328.3014357729
 31
0.0
  0
LINE
  5
229
330
1F
100
AcDbEntity
  8
0
  6
Continuous
 62
     7
370
    50
100
AcDbLine
 10
168.3924395886
 20
331.3014357729
 30
0.0
 11
168.5924395886
 21
331.3014357729
 31
0.0
  0
LINE
  5
22A
330
1F
100
AcDbEntity
  8
0
  6
Continuous
 62
     7
370
    50
100
AcDbLine
 10
158.1424395886
 20
331.3014357729
 30
0.0
 11
158.1924395886
 21
331.3014357729
 31
0.0
  0
LINE
  5
22B
330
1F
100
AcDbEntity
  8
0
  6
Continuous
 62
     7
370
    50
100
AcDbLine
 10
168.5924395886
 20
331.3014357729
 30
0.0
 11
168.6424395886
 21
331.3014357729
 31
0.0
  0
LINE
  5
22C
330
1F
100
AcDbEntity
  8
0
  6
Continuous
 62
     7
370
    50
100
AcDbLine
 10
182.6424395886
 20
328.3014357729
 30
0.0
 11
182.6424395886
 21
331.3014357729
 31
0.0
  0
LINE
  5
22D
330
1F
100
AcDbEntity
  8
0
  6
Continuous
 62
     7
370
    50
100
AcDbLine
 10
182.5174395886
 20
331.3014357729
 30
0.0
 11
182.6424395886
 21
331.3014357729
 31
0.0
  0
LINE
  5
22E
330
1F
100
AcDbEntity
  8
0
  6
Continuous
 62
     7
370
    50
100
AcDbLine
 10
187.6424395886
 20
328.3014357729
 30
0.0
 11
187.6424395886
 21
331.3014357729
 31
0.0
  0
LINE
  5
22F
330
1F
100
AcDbEntity
  8
0
  6
Continuous
 62
     7
370
    50
100
AcDbLine
 10
182.6424395886
 20
328.3014357729
 30
0.0
 11
187.6424395886
 21
328.3014357729
 31
0.0
  0
LINE
  5
230
330
1F
100
AcDbEntity
  8
0
  6
Continuous
 62
     7
370
    50
100
AcDbLine
 10
182.6424395886
 20
331.3014357729
 30
0.0
 11
187.6424395886
 21
331.3014357729
 31
0.0
  0
LINE
  5
231
330
1F
100
AcDbEntity
  8
0
  6
Continuous
 62
     7
370
    50
100
AcDbLine
 10
147.5558737154
 20
335.3014357729
 30
0.0
 11
147.5558737154
 21
185.3014357729
 31
0.0
  0
LINE
  5
232
330
1F
100
AcDbEntity
  8
0
  6
Continuous
 62
     7
370
    50
100
AcDbLine
 10
151.565571335
 20
335.3014357729
 30
0.0
 11
147.5558737154
 21
335.3014357729
 31
0.0
  0
LINE
  5
233
330
1F
100
AcDbEntity
  8
0
  6
Continuous
 62
     7
370
    50
100
AcDbLine
 10
151.565571335
 20
335.3014357729
 30
0.0
 11
151.565571335
 21
185.3014357729
 31
0.0
  0
LINE
  5
234
330
1F
100
AcDbEntity
  8
0
  6
Continuous
 62
     7
370
    50
100
AcDbLine
 10
151.565571335
 20
185.3014357729
 30
0.0
 11
147.5558737154
 21
185.3014357729
 31
0.0
  0
ARC
  5
235
330
1F
100
AcDbEntity
  8
0
  6
Continuous
 62
     7
370
    50
100
AcDbCircle
 10
156.1424395886
 20
333.3014357729
 30
0.0
 40
2.0
100
AcDbArc
 50
0.0
 51
90.0
  0
LINE
  5
236
330
1F
100
AcDbEntity
  8
0
  6
Continuous
 62
     7
370
    50
100
AcDbLine
 10
158.1424395886
 20
328.3014357729
 30
0.0
 11
158.1424395886
 21
333.3014357729
 31
0.0
  0
LINE
  5
237
330
1F
100
AcDbEntity
  8
0
  6
Continuous
 62
     7
370
    50
100
AcDbLine
 10
158.1424395886
 20
328.3014357729
 30
0.0
 11
168.6424395886
 21
328.3014357729
 31
0.0
  0
LINE
  5
238
330
1F
100
AcDbEntity
  8
0
  6
Continuous
 62
     7
370
    50
100
AcDbLine
 10
168.6424395886
 20
328.3014357729
 30
0.0
 11
168.6424395886
 21
333.3014357729
 31
0.0
  0
ARC
  5
239
330
1F
100
AcDbEntity
  8
0
  6
Continuous
 62
     7
370
    50
100
AcDbCircle
 10
170.6424395886
 20
333.3014357729
 30
0.0
 40
2.000000000000028
100
AcDbArc
 50
90.0
 51
180.0
  0
LINE
  5
23A
330
1F
100
AcDbEntity
  8
0
  6
Continuous
 62
     7
370
    50
100
AcDbLine
 10
175.2193078423
 20
335.3014357729
 30
0.0
 11
170.6424395886
 21
335.3014357729
 31
0.0
  0
LINE
  5
23B
330
1F
100
AcDbEntity
  8
0
  6
Continuous
 62
     7
370
    50
100
AcDbLine
 10
175.2193078423
 20
335.3014357729
 30
0.0
 11
175.2193078423
 21
185.3014357729
 31
0.0
  0
LINE
  5
23C
330
1F
100
AcDbEntity
  8
0
  6
Continuous
 62
     7
370
    50
100
AcDbLine
 10
175.2193078423
 20
185.3014357729
 30
0.0
 11
170.6424395886
 21
185.3014357729
 31
0.0
  0
ARC
  5
23D
330
1F
100
AcDbEntity
  8
0
  6
Continuous
 62
     7
370
    50
100
AcDbCircle
 10
170.6424395886
 20
187.3014357729
 30
0.0
 40
2.000000000000028
100
AcDbArc
 50
180.0
 51
270.0
  0
LINE
  5
23E
330
1F
100
AcDbEntity
  8
0
  6
Continuous
 62
     7
370
    50
100
AcDbLine
 10
168.6424395886
 20
192.3014357729
 30
0.0
 11
168.6424395886
 21
187.3014357729
 31
0.0
  0
LINE
  5
23F
330
1F
100
AcDbEntity
  8
0
  6
Continuous
 62
     7
370
    50
100
AcDbLine
 10
158.1424395886
 20
192.3014357729
 30
0.0
 11
168.6424395886
 21
192.3014357729
 31
0.0
  0
LINE
  5
240
330
1F
100
AcDbEntity
  8
0
  6
Continuous
 62
     7
370
    50
100
AcDbLine
 10
158.1424395886
 20
192.3014357729
 30
0.0
 11
158.1424395886
 21
187.3014357729
 31
0.0
  0
ARC
  5
241
330
1F
100
AcDbEntity
  8
0
  6
Continuous
 62
     7
370
    50
100
AcDbCircle
 10
156.1424395886
 20
187.3014357729
 30
0.0
 40
2.0
100
AcDbArc
 50
270.0
 51
0.0
  0
LINE
  5
242
330
1F
100
AcDbEntity
  8
0
  6
Continuous
 62
     7
370
    50
100
AcDbLine
 10
156.1424395886
 20
335.3014357729
 30
0.0
 11
151.565571335
 21
335.3014357729
 31
0.0
  0
LINE
  5
243
330
1F
100
AcDbEntity
  8
0
  6
Continuous
 62
     7
370
    50
100
AcDbLine
 10
156.1424395886
 20
185.3014357729
 30
0.0
 11
151.565571335
 21
185.3014357729
 31
0.0
  0
LINE
  5
244
330
1F
100
AcDbEntity
  8
0
  6
Continuous
 62
     7
370
    50
100
AcDbLine
 10
179.2290054618
 20
335.3014357729
 30
0.0
 11
175.2193078423
 21
335.3014357729
 31
0.0
  0
LINE
  5
245
330
1F
100
AcDbEntity
  8
0
  6
Continuous
 62
     7
370
    50
100
AcDbLine
 10
179.2290054618
 20
335.3014357729
 30
0.0
 11
179.2290054618
 21
185.3014357729
 31
0.0
  0
LINE
  5
246
330
1F
100
AcDbEntity
  8
0
  6
Continuous
 62
     7
370
    50
100
AcDbLine
 10
179.2290054618
 20
185.3014357729
 30
0.0
 11
175.2193078423
 21
185.3014357729
 31
0.0
  0
LINE
  5
247
330
1F
100
AcDbEntity
  8
0
  6
Continuous
 62
     7
370
    50
100
AcDbLine
 10
147.5558737154
 20
185.3014357729
 30
0.0
 11
143.8924395886
 21
185.3014357729
 31
0.0
  0
LWPOLYLINE
  5
248
330
1F
100
AcDbEntity
  8
0
  6
Continuous
 62
     7
370
    50
100
AcDbPolyline
 90
        9
 70
   128
 43
0.0
 10
141.3924395886
 20
190.3014357729
 10
141.4404763876
 20
189.3259841628
 10
141.5827407573
 20
188.3880186111
 10
141.8137655578
 20
187.5235846078
 10
142.1246726356
 20
186.765901867
 10
142.5035140061
 20
186.1440877114
 10
142.9357310077
 20
185.6820381103
 10
143.4047137836
 20
185.3975093709
 10
143.8924395886
 20
185.3014357729
  0
LINE
  5
249
330
1F
100
AcDbEntity
  8
0
  6
Continuous
 62
     7
370
    50
100
AcDbLine
 10
141.3924395886
 20
330.3014357729
 30
0.0
 11
141.3924395886
 21
190.3014357729
 31
0.0
  0
LWPOLYLINE
  5
24A
330
1F
100
AcDbEntity
  8
0
  6
Continuous
 62
     7
370
    50
100
AcDbPolyline
 90
        9
 70
   128
 43
0.0
 10
143.8924395886
 20
335.3014357729
 10
143.4047137836
 20
335.2053621749
 10
142.9357310077
 20
334.9208334355
 10
142.5035140061
 20
334.4587838344
 10
142.1246726356
 20
333.8369696788
 10
141.8137655578
 20
333.079286938
 10
141.5827407573
 20
332.2148529347
 10
141.4404763876
 20
331.276887383
 10
141.3924395886
 20
330.3014357729
  0
LINE
  5
24B
330
1F
100
AcDbEntity
  8
0
  6
Continuous
 62
     7
370
    50
100
AcDbLine
 10
147.5558737154
 20
335.3014357729
 30
0.0
 11
143.8924395886
 21
335.3014357729
 31
0.0
  0
LINE
  5
24C
330
1F
100
AcDbEntity
  8
0
  6
Continuous
 62
     7
370
    50
100
AcDbLine
 10
182.5174395886
 20
192.3014357729
 30
0.0
 11
187.7674395886
 21
192.3014357729
 31
0.0
  0
LINE
  5
24D
330
1F
100
AcDbEntity
  8
0
  6
Continuous
 62
     7
370
    50
100
AcDbLine
 10
182.5174395886
 20
192.3014357729
 30
0.0
 11
182.5174395886
 21
187.3014357729
 31
0.0
  0
LWPOLYLINE
  5
24E
330
1F
100
AcDbEntity
  8
0
  6
Continuous
 62
     7
370
    50
100
AcDbPolyline
 90
        9
 70
   128
 43
0.0
 10
181.5174395886
 20
185.3014357729
 10
181.7125299106
 20
185.3398652121
 10
181.900123021
 20
185.4536767079
 10
182.0730098216
 20
185.6384965483
 10
182.2245463698
 20
185.8872222105
 10
182.3489092009
 20
186.1902953069
 10
182.4413191211
 20
186.5360689082
 10
182.498224869
 20
186.9112551289
 10
182.5174395886
 20
187.3014357729
  0
LWPOLYLINE
  5
24F
330
1F
100
AcDbEntity
  8
0
  6
Continuous
 62
     7
370
    50
100
AcDbPolyline
 90
        9
 70
   128
 43
0.0
 10
182.5174395886
 20
333.3014357729
 10
182.498224869
 20
333.6916164169
 10
182.4413191211
 20
334.0668026376
 10
182.3489092009
 20
334.4125762389
 10
182.2245463698
 20
334.7156493353
 10
182.0730098216
 20
334.9643749975
 10
181.900123021
 20
335.1491948379
 10
181.7125299106
 20
335.2630063337
 10
181.5174395886
 20
335.3014357729
  0
LINE
  5
250
330
1F
100
AcDbEntity
  8
0
  6
Continuous
 62
     7
370
    50
100
AcDbLine
 10
182.5174395886
 20
328.3014357729
 30
0.0
 11
182.5174395886
 21
333.3014357729
 31
0.0
  0
LINE
  5
251
330
1F
100
AcDbEntity
  8
0
  6
Continuous
 62
     7
370
    50
100
AcDbLine
 10
182.5174395886
 20
328.3014357729
 30
0.0
 11
187.7674395886
 21
328.3014357729
 31
0.0
  0
LINE
  5
252
330
1F
100
AcDbEntity
  8
0
  6
Continuous
 62
     7
370
    50
100
AcDbLine
 10
187.7674395886
 20
328.3014357729
 30
0.0
 11
187.7674395886
 21
333.3014357729
 31
0.0
  0
LWPOLYLINE
  5
253
330
1F
100
AcDbEntity
  8
0
  6
Continuous
 62
     7
370
    50
100
AcDbPolyline
 90
        9
 70
   128
 43
0.0
 10
188.7674395886
 20
335.3014357729
 10
188.5723492666
 20
335.2630063337
 10
188.3847561562
 20
335.1491948379
 10
188.2118693556
 20
334.9643749975
 10
188.0603328074
 20
334.7156493353
 10
187.9359699763
 20
334.4125762389
 10
187.8435600561
 20
334.0668026376
 10
187.7866543082
 20
333.6916164169
 10
187.7674395886
 20
333.3014357729
  0
LINE
  5
254
330
1F
100
AcDbEntity
  8
0
  6
Continuous
 62
     7
370
    50
100
AcDbLine
 10
191.0558737154
 20
335.3014357729
 30
0.0
 11
188.7674395886
 21
335.3014357729
 31
0.0
  0
LINE
  5
255
330
1F
100
AcDbEntity
  8
0
  6
Continuous
 62
     7
370
    50
100
AcDbLine
 10
191.0558737154
 20
335.3014357729
 30
0.0
 11
191.0558737154
 21
185.3014357729
 31
0.0
  0
LINE
  5
256
330
1F
100
AcDbEntity
  8
0
  6
Continuous
 62
     7
370
    50
100
AcDbLine
 10
191.0558737154
 20
185.3014357729
 30
0.0
 11
188.7674395886
 21
185.3014357729
 31
0.0
  0
LWPOLYLINE
  5
257
330
1F
100
AcDbEntity
  8
0
  6
Continuous
 62
     7
370
    50
100
AcDbPolyline
 90
        9
 70
   128
 43
0.0
 10
187.7674395886
 20
187.3014357729
 10
187.7866543082
 20
186.9112551289
 10
187.8435600561
 20
186.5360689082
 10
187.9359699763
 20
186.1902953069
 10
188.0603328074
 20
185.8872222105
 10
188.2118693556
 20
185.6384965483
 10
188.3847561562
 20
185.4536767079
 10
188.5723492666
 20
185.3398652121
 10
188.7674395886
 20
185.3014357729
  0
LINE
  5
258
330
1F
100
AcDbEntity
  8
0
  6
Continuous
 62
     7
370
    50
100
AcDbLine
 10
187.7674395886
 20
192.3014357729
 30
0.0
 11
187.7674395886
 21
187.3014357729
 31
0.0
  0
LINE
  5
259
330
1F
100
AcDbEntity
  8
0
  6
Continuous
 62
     7
370
    50
100
AcDbLine
 10
181.5174395886
 20
185.3014357729
 30
0.0
 11
179.2290054618
 21
185.3014357729
 31
0.0
  0
LINE
  5
25A
330
1F
100
AcDbEntity
  8
0
  6
Continuous
 62
     7
370
    50
100
AcDbLine
 10
181.5174395886
 20
335.3014357729
 30
0.0
 11
179.2290054618
 21
335.3014357729
 31
0.0
  0
LINE
  5
25B
330
1F
100
AcDbEntity
  8
0
  6
Continuous
 62
     7
370
    50
100
AcDbLine
 10
187.7674395886
 20
333.3014357729
 30
0.0
 11
186.035388781
 21
333.3014357729
 31
0.0
  0
LINE
  5
25C
330
1F
100
AcDbEntity
  8
0
  6
Continuous
 62
     7
370
    50
100
AcDbLine
 10
186.035388781
 20
331.3014357729
 30
0.0
 11
186.035388781
 21
333.3014357729
 31
0.0
  0
LINE
  5
25D
330
1F
100
AcDbEntity
  8
0
  6
Continuous
 62
     7
370
    50
100
AcDbLine
 10
188.7674395886
 20
185.3014357729
 30
0.0
 11
187.035388781
 21
185.3014357729
 31
0.0
  0
LINE
  5
25E
330
1F
100
AcDbEntity
  8
0
  6
Continuous
 62
     7
370
    50
100
AcDbLine
 10
186.035388781
 20
187.3014357729
 30
0.0
 11
187.7674395886
 21
187.3014357729
 31
0.0
  0
LWPOLYLINE
  5
25F
330
1F
100
AcDbEntity
  8
0
  6
Continuous
 62
     7
370
    50
100
AcDbPolyline
 90
        9
 70
   128
 43
0.0
 10
187.035388781
 20
185.3014357729
 10
186.840298459
 20
185.3398652121
 10
186.6527053487
 20
185.4536767079
 10
186.479818548
 20
185.6384965483
 10
186.3282819998
 20
185.8872222105
 10
186.2039191687
 20
186.1902953069
 10
186.1115092485
 20
186.5360689082
 10
186.0546035006
 20
186.9112551289
 10
186.035388781
 20
187.3014357729
  0
LINE
  5
260
330
1F
100
AcDbEntity
  8
0
  6
Continuous
 62
     7
370
    50
100
AcDbLine
 10
186.035388781
 20
189.3014357729
 30
0.0
 11
186.035388781
 21
187.3014357729
 31
0.0
  0
LINE
  5
261
330
1F
100
AcDbEntity
  8
0
  6
Continuous
 62
     7
370
    50
100
AcDbLine
 10
187.035388781
 20
335.3014357729
 30
0.0
 11
188.7674395886
 21
335.3014357729
 31
0.0
  0
LWPOLYLINE
  5
262
330
1F
100
AcDbEntity
  8
0
  6
Continuous
 62
     7
370
    50
100
AcDbPolyline
 90
        9
 70
   128
 43
0.0
 10
186.035388781
 20
333.3014357729
 10
186.0546035006
 20
333.6916164169
 10
186.1115092485
 20
334.0668026376
 10
186.2039191687
 20
334.4125762389
 10
186.3282819998
 20
334.7156493353
 10
186.479818548
 20
334.9643749975
 10
186.6527053487
 20
335.1491948379
 10
186.840298459
 20
335.2630063337
 10
187.035388781
 20
335.3014357729
  0
LINE
  5
263
330
1F
100
AcDbEntity
  8
0
  6
Continuous
 62
     7
370
    50
100
AcDbLine
 10
191.6761760959
 20
185.3014357729
 30
0.0
 11
191.0558737154
 21
185.3014357729
 31
0.0
  0
LINE
  5
264
330
1F
100
AcDbEntity
  8
0
  6
Continuous
 62
     7
370
    50
100
AcDbLine
 10
191.6761760959
 20
335.3014357729
 30
0.0
 11
191.0558737154
 21
335.3014357729
 31
0.0
  0
LINE
  5
265
330
1F
100
AcDbEntity
  8
0
  6
Continuous
 62
     7
370
    50
100
AcDbLine
 10
243.6290766485
 20
187.3014357729
 30
0.0
 11
243.6290766485
 21
189.3014357729
 31
0.0
  0
LINE
  5
266
330
1F
100
AcDbEntity
  8
0
  6
Continuous
 62
     7
370
    50
100
AcDbLine
 10
224.6290766485
 20
189.3014357729
 30
0.0
 11
224.6290766485
 21
187.3014357729
 31
0.0
  0
LINE
  5
267
330
1F
100
AcDbEntity
  8
0
  6
Continuous
 62
     7
370
    50
100
AcDbLine
 10
240.6315456478
 20
209.8696129273
 30
0.0
 11
240.3790766485
 21
211.3014357729
 31
0.0
  0
LINE
  5
268
330
1F
100
AcDbEntity
  8
0
  6
Continuous
 62
     7
370
    50
100
AcDbLine
 10
227.8790766485
 20
211.3014357729
 30
0.0
 11
227.6266076492
 21
209.8696129273
 31
0.0
  0
LINE
  5
269
330
1F
100
AcDbEntity
  8
0
  6
Continuous
 62
     7
370
    50
100
AcDbLine
 10
224.6290766485
 20
333.3014357729
 30
0.0
 11
224.6290766485
 21
331.3014357729
 31
0.0
  0
LINE
  5
26A
330
1F
100
AcDbEntity
  8
0
  6
Continuous
 62
     7
370
    50
100
AcDbLine
 10
243.6290766485
 20
331.3014357729
 30
0.0
 11
243.6290766485
 21
333.3014357729
 31
0.0
  0
LINE
  5
26B
330
1F
100
AcDbEntity
  8
0
  6
Continuous
 62
     7
370
    50
100
AcDbLine
 10
227.6266076492
 20
310.7332586185
 30
0.0
 11
227.8790766485
 21
309.3014357729
 31
0.0
  0
LINE
  5
26C
330
1F
100
AcDbEntity
  8
0
  6
Continuous
 62
     7
370
    50
100
AcDbLine
 10
240.3790766485
 20
309.3014357729
 30
0.0
 11
240.6315456478
 21
310.7332586185
 31
0.0
  0
LINE
  5
26D
330
1F
100
AcDbEntity
  8
0
  6
Continuous
 62
     7
370
    50
100
AcDbLine
 10
243.6290766485
 20
187.3014357729
 30
0.0
 11
224.6290766485
 21
187.3014357729
 31
0.0
  0
LINE
  5
26E
330
1F
100
AcDbEntity
  8
0
  6
Continuous
 62
     7
370
    50
100
AcDbLine
 10
227.6290766485
 20
204.1808380378
 30
0.0
 11
227.6290766485
 21
192.3014357729
 31
0.0
  0
LWPOLYLINE
  5
26F
330
1F
100
AcDbEntity
  8
0
  6
Continuous
 62
     7
370
    50
100
AcDbPolyline
 90
       13
 70
   128
 43
0.0
 10
227.6290766485
 20
204.1808380378
 10
228.5207165957
 20
206.7791679524
 10
229.0692399525
 20
208.0251952965
 10
229.7789849491
 20
209.1862731491
 10
230.1590066181
 20
209.5832427249
 10
230.624047857
 20
209.845803082
 10
230.9659873034
 20
209.8792219581
 10
231.2982742466
 20
209.781541743
 10
231.7394190181
 20
209.4555549758
 10
232.1775360881
 20
208.9156306387
 10
232.5520705909
 20
208.2900197063
 10
233.4229231317
 20
206.2942832517
 10
234.1290766485
 20
204.1808380378
  0
LINE
  5
270
330
1F
100
AcDbEntity
  8
0
  6
Continuous
 62
     7
370
    50
100
AcDbLine
 10
234.1290766485
 20
204.1808380378
 30
0.0
 11
234.1290766485
 21
192.3014357729
 31
0.0
  0
LINE
  5
271
330
1F
100
AcDbEntity
  8
0
  6
Continuous
 62
     7
370
    50
100
AcDbLine
 10
240.6290766485
 20
204.1808380378
 30
0.0
 11
240.6290766485
 21
209.8787031828
 31
0.0
  0
LWPOLYLINE
  5
272
330
1F
100
AcDbEntity
  8
0
  6
Continuous
 62
     7
370
    50
100
AcDbPolyline
 90
       13
 70
   128
 43
0.0
 10
234.1290766485
 20
204.1808380378
 10
235.0207165957
 20
206.7791679524
 10
235.5692399525
 20
208.0251952965
 10
236.2789849491
 20
209.1862731491
 10
236.6590066181
 20
209.5832427249
 10
237.124047857
 20
209.845803082
 10
237.4659873034
 20
209.8792219581
 10
237.7982742466
 20
209.781541743
 10
238.2394190181
 20
209.4555549758
 10
238.6775360881
 20
208.9156306387
 10
239.0520705909
 20
208.2900197063
 10
239.9229231317
 20
206.2942832517
 10
240.6290766485
 20
204.1808380378
  0
LINE
  5
273
330
1F
100
AcDbEntity
  8
0
  6
Continuous
 62
     7
370
    50
100
AcDbLine
 10
227.6290766485
 20
209.8691775761
 30
0.0
 11
227.6290766485
 21
204.1808380378
 31
0.0
  0
LINE
  5
274
330
1F
100
AcDbEntity
  8
0
  6
Continuous
 62
     7
370
    50
100
AcDbLine
 10
240.3790766485
 20
211.3014357729
 30
0.0
 11
227.8790766485
 21
211.3014357729
 31
0.0
  0
LINE
  5
275
330
1F
100
AcDbEntity
  8
0
  6
Continuous
 62
     7
370
    50
100
AcDbLine
 10
240.6290766485
 20
204.1808380378
 30
0.0
 11
240.6290766485
 21
192.3014357729
 31
0.0
  0
LINE
  5
276
330
1F
100
AcDbEntity
  8
0
  6
Continuous
 62
     7
370
    50
100
AcDbLine
 10
224.6290766485
 20
333.3014357729
 30
0.0
 11
243.6290766485
 21
333.3014357729
 31
0.0
  0
LINE
  5
277
330
1F
100
AcDbEntity
  8
0
  6
Continuous
 62
     7
370
    50
100
AcDbLine
 10
227.6290766485
 20
316.422033508
 30
0.0
 11
227.6290766485
 21
310.724168363
 31
0.0
  0
LWPOLYLINE
  5
278
330
1F
100
AcDbEntity
  8
0
  6
Continuous
 62
     7
370
    50
100
AcDbPolyline
 90
       13
 70
   128
 43
0.0
 10
234.1290766485
 20
316.422033508
 10
233.2374367013
 20
313.8237035934
 10
232.6889133445
 20
312.5776762493
 10
231.9791683479
 20
311.4165983967
 10
231.5991466789
 20
311.0196288209
 10
231.13410544
 20
310.7570684637
 10
230.7921659936
 20
310.7236495877
 10
230.4598790504
 20
310.8213298027
 10
230.0187342789
 20
311.14731657
 10
229.5806172089
 20
311.6872409071
 10
229.2060827061
 20
312.3128518395
 10
228.3352301653
 20
314.3085882941
 10
227.6290766485
 20
316.422033508
  0
LWPOLYLINE
  5
279
330
1F
100
AcDbEntity
  8
0
  6
Continuous
 62
     7
370
    50
100
AcDbPolyline
 90
       13
 70
   128
 43
0.0
 10
240.6290766485
 20
316.422033508
 10
239.7374367013
 20
313.8237035934
 10
239.1889133445
 20
312.5776762493
 10
238.4791683479
 20
311.4165983967
 10
238.0991466789
 20
311.0196288209
 10
237.63410544
 20
310.7570684637
 10
237.2921659936
 20
310.7236495877
 10
236.9598790504
 20
310.8213298027
 10
236.5187342789
 20
311.14731657
 10
236.0806172089
 20
311.6872409071
 10
235.7060827061
 20
312.3128518395
 10
234.8352301653
 20
314.3085882941
 10
234.1290766485
 20
316.422033508
  0
LINE
  5
27A
330
1F
100
AcDbEntity
  8
0
  6
Continuous
 62
     7
370
    50
100
AcDbLine
 10
240.6290766485
 20
310.7336939697
 30
0.0
 11
240.6290766485
 21
316.422033508
 31
0.0
  0
LINE
  5
27B
330
1F
100
AcDbEntity
  8
0
  6
Continuous
 62
     7
370
    50
100
AcDbLine
 10
227.8790766485
 20
309.3014357729
 30
0.0
 11
240.3790766485
 21
309.3014357729
 31
0.0
  0
LINE
  5
27C
330
1F
100
AcDbEntity
  8
0
  6
Continuous
 62
     7
370
    50
100
AcDbLine
 10
240.6290766485
 20
316.422033508
 30
0.0
 11
240.6290766485
 21
328.3014357729
 31
0.0
  0
LINE
  5
27D
330
1F
100
AcDbEntity
  8
0
  6
Continuous
 62
     7
370
    50
100
AcDbLine
 10
234.1290766485
 20
316.422033508
 30
0.0
 11
234.1290766485
 21
328.3014357729
 31
0.0
  0
LINE
  5
27E
330
1F
100
AcDbEntity
  8
0
  6
Continuous
 62
     7
370
    50
100
AcDbLine
 10
227.6290766485
 20
316.422033508
 30
0.0
 11
227.6290766485
 21
328.3014357729
 31
0.0
  0
LINE
  5
27F
330
1F
100
AcDbEntity
  8
0
  6
Continuous
 62
     7
370
    50
100
AcDbLine
 10
224.7774796596
 20
192.3014357729
 30
0.0
 11
224.7774796596
 21
189.3014357729
 31
0.0
  0
LINE
  5
280
330
1F
100
AcDbEntity
  8
0
  6
Continuous
 62
     7
370
    50
100
AcDbLine
 10
224.7774796596
 20
189.3014357729
 30
0.0
 11
223.2774796596
 21
189.3014357729
 31
0.0
  0
LINE
  5
281
330
1F
100
AcDbEntity
  8
0
  6
Continuous
 62
     7
370
    50
100
AcDbLine
 10
223.2774796596
 20
189.3014357729
 30
0.0
 11
223.2774796596
 21
192.3014357729
 31
0.0
  0
LINE
  5
282
330
1F
100
AcDbEntity
  8
0
  6
Continuous
 62
     7
370
    50
100
AcDbLine
 10
223.2774796596
 20
192.3014357729
 30
0.0
 11
224.7774796596
 21
192.3014357729
 31
0.0
  0
LINE
  5
283
330
1F
100
AcDbEntity
  8
0
  6
Continuous
 62
     7
370
    50
100
AcDbLine
 10
244.9806736374
 20
192.3014357729
 30
0.0
 11
244.9806736374
 21
189.3014357729
 31
0.0
  0
LINE
  5
284
330
1F
100
AcDbEntity
  8
0
  6
Continuous
 62
     7
370
    50
100
AcDbLine
 10
243.4806736374
 20
189.3014357729
 30
0.0
 11
243.4806736374
 21
192.3014357729
 31
0.0
  0
LINE
  5
285
330
1F
100
AcDbEntity
  8
0
  6
Continuous
 62
     7
370
    50
100
AcDbLine
 10
244.9806736374
 20
189.3014357729
 30
0.0
 11
243.4806736374
 21
189.3014357729
 31
0.0
  0
LINE
  5
286
330
1F
100
AcDbEntity
  8
0
  6
Continuous
 62
     7
370
    50
100
AcDbLine
 10
243.4806736374
 20
192.3014357729
 30
0.0
 11
244.9806736374
 21
192.3014357729
 31
0.0
  0
LINE
  5
287
330
1F
100
AcDbEntity
  8
0
  6
Continuous
 62
     7
370
    50
100
AcDbLine
 10
243.4806736374
 20
189.3014357729
 30
0.0
 11
224.7774796596
 21
189.3014357729
 31
0.0
  0
LINE
  5
288
330
1F
100
AcDbEntity
  8
0
  6
Continuous
 62
     7
370
    50
100
AcDbLine
 10
243.4806736374
 20
192.3014357729
 30
0.0
 11
224.7774796596
 21
192.3014357729
 31
0.0
  0
LINE
  5
289
330
1F
100
AcDbEntity
  8
0
  6
Continuous
 62
     7
370
    50
100
AcDbLine
 10
245.3409186333
 20
189.3014357729
 30
0.0
 11
244.9806736374
 21
189.3014357729
 31
0.0
  0
LINE
  5
28A
330
1F
100
AcDbEntity
  8
0
  6
Continuous
 62
     7
370
    50
100
AcDbLine
 10
245.2534323015
 20
192.3014357729
 30
0.0
 11
244.9806736374
 21
192.3014357729
 31
0.0
  0
LINE
  5
28B
330
1F
100
AcDbEntity
  8
0
  6
Continuous
 62
     7
370
    50
100
AcDbLine
 10
223.2774796596
 20
189.3014357729
 30
0.0
 11
222.9172346637
 21
189.3014357729
 31
0.0
  0
LINE
  5
28C
330
1F
100
AcDbEntity
  8
0
  6
Continuous
 62
     7
370
    50
100
AcDbLine
 10
223.2774796596
 20
192.3014357729
 30
0.0
 11
223.0047209955
 21
192.3014357729
 31
0.0
  0
LINE
  5
28D
330
1F
100
AcDbEntity
  8
0
  6
Continuous
 62
     7
370
    50
100
AcDbLine
 10
243.4806736374
 20
328.3014357729
 30
0.0
 11
243.4806736374
 21
331.3014357729
 31
0.0
  0
LINE
  5
28E
330
1F
100
AcDbEntity
  8
0
  6
Continuous
 62
     7
370
    50
100
AcDbLine
 10
244.9806736374
 20
331.3014357729
 30
0.0
 11
244.9806736374
 21
328.3014357729
 31
0.0
  0
LINE
  5
28F
330
1F
100
AcDbEntity
  8
0
  6
Continuous
 62
     7
370
    50
100
AcDbLine
 10
244.9806736374
 20
328.3014357729
 30
0.0
 11
243.4806736374
 21
328.3014357729
 31
0.0
  0
LINE
  5
290
330
1F
100
AcDbEntity
  8
0
  6
Continuous
 62
     7
370
    50
100
AcDbLine
 10
243.4806736374
 20
331.3014357729
 30
0.0
 11
244.9806736374
 21
331.3014357729
 31
0.0
  0
LINE
  5
291
330
1F
100
AcDbEntity
  8
0
  6
Continuous
 62
     7
370
    50
100
AcDbLine
 10
223.2774796596
 20
328.3014357729
 30
0.0
 11
223.2774796596
 21
331.3014357729
 31
0.0
  0
LINE
  5
292
330
1F
100
AcDbEntity
  8
0
  6
Continuous
 62
     7
370
    50
100
AcDbLine
 10
224.7774796596
 20
331.3014357729
 30
0.0
 11
224.7774796596
 21
328.3014357729
 31
0.0
  0
LINE
  5
293
330
1F
100
AcDbEntity
  8
0
  6
Continuous
 62
     7
370
    50
100
AcDbLine
 10
224.7774796596
 20
328.3014357729
 30
0.0
 11
223.2774796596
 21
328.3014357729
 31
0.0
  0
LINE
  5
294
330
1F
100
AcDbEntity
  8
0
  6
Continuous
 62
     7
370
    50
100
AcDbLine
 10
223.2774796596
 20
331.3014357729
 30
0.0
 11
224.7774796596
 21
331.3014357729
 31
0.0
  0
LINE
  5
295
330
1F
100
AcDbEntity
  8
0
  6
Continuous
 62
     7
370
    50
100
AcDbLine
 10
224.7774796596
 20
328.3014357729
 30
0.0
 11
243.4806736374
 21
328.3014357729
 31
0.0
  0
LINE
  5
296
330
1F
100
AcDbEntity
  8
0
  6
Continuous
 62
     7
370
    50
100
AcDbLine
 10
224.7774796596
 20
331.3014357729
 30
0.0
 11
243.4806736374
 21
331.3014357729
 31
0.0
  0
LINE
  5
297
330
1F
100
AcDbEntity
  8
0
  6
Continuous
 62
     7
370
    50
100
AcDbLine
 10
244.9806736374
 20
328.3014357729
 30
0.0
 11
245.2534323015
 21
328.3014357729
 31
0.0
  0
LINE
  5
298
330
1F
100
AcDbEntity
  8
0
  6
Continuous
 62
     7
370
    50
100
AcDbLine
 10
244.9806736374
 20
331.3014357729
 30
0.0
 11
245.3409186333
 21
331.3014357729
 31
0.0
  0
LINE
  5
299
330
1F
100
AcDbEntity
  8
0
  6
Continuous
 62
     7
370
    50
100
AcDbLine
 10
223.0047209955
 20
328.3014357729
 30
0.0
 11
223.2774796596
 21
328.3014357729
 31
0.0
  0
LINE
  5
29A
330
1F
100
AcDbEntity
  8
0
  6
Continuous
 62
     7
370
    50
100
AcDbLine
 10
222.9172346637
 20
331.3014357729
 30
0.0
 11
223.2774796596
 21
331.3014357729
 31
0.0
  0
LINE
  5
29B
330
1F
100
AcDbEntity
  8
0
  6
Continuous
 62
     7
370
    50
100
AcDbLine
 10
218.6745939766
 20
185.3014357729
 30
0.0
 11
217.6745939766
 21
185.3014357729
 31
0.0
  0
ARC
  5
29C
330
1F
100
AcDbEntity
  8
0
  6
Continuous
 62
     7
370
    50
100
AcDbCircle
 10
217.3137500584
 20
189.9889357729
 30
0.0
 40
4.701368373498678
100
AcDbArc
 50
274.4019496523
 51
3.8112610495
  0
LINE
  5
29D
330
1F
100
AcDbEntity
  8
0
  6
Continuous
 62
     7
370
    50
100
AcDbLine
 10
222.0047209955
 20
190.3014357729
 30
0.0
 11
223.0047209955
 21
190.3014357729
 31
0.0
  0
ARC
  5
29E
330
1F
100
AcDbEntity
  8
0
  6
Continuous
 62
     7
370
    50
100
AcDbCircle
 10
218.3137500584
 20
189.9889357729
 30
0.0
 40
4.701368373498708
100
AcDbArc
 50
274.4019496523
 51
3.8112610495
  0
LINE
  5
29F
330
1F
100
AcDbEntity
  8
0
  6
Continuous
 62
     7
370
    50
100
AcDbLine
 10
217.6745939766
 20
185.3014357729
 30
0.0
 11
211.3293399388
 21
185.3014357729
 31
0.0
  0
LINE
  5
2A0
330
1F
100
AcDbEntity
  8
0
  6
Continuous
 62
     7
370
    50
100
AcDbLine
 10
211.3293399388
 20
335.3014357729
 30
0.0
 11
211.3293399388
 21
185.3014357729
 31
0.0
  0
LINE
  5
2A1
330
1F
100
AcDbEntity
  8
0
  6
Continuous
 62
     7
370
    50
100
AcDbLine
 10
217.6745939766
 20
335.3014357729
 30
0.0
 11
211.3293399388
 21
335.3014357729
 31
0.0
  0
ARC
  5
2A2
330
1F
100
AcDbEntity
  8
0
  6
Continuous
 62
     7
370
    50
100
AcDbCircle
 10
217.3137500584
 20
330.6139357729
 30
0.0
 40
4.701368373498831
100
AcDbArc
 50
356.1887389505
 51
85.5980503477
  0
LINE
  5
2A3
330
1F
100
AcDbEntity
  8
0
  6
Continuous
 62
     7
370
    50
100
AcDbLine
 10
222.0047209955
 20
330.3014357729
 30
0.0
 11
222.0047209955
 21
190.3014357729
 31
0.0
  0
LINE
  5
2A4
330
1F
100
AcDbEntity
  8
0
  6
Continuous
 62
     7
370
    50
100
AcDbLine
 10
223.0047209955
 20
330.3014357729
 30
0.0
 11
222.0047209955
 21
330.3014357729
 31
0.0
  0
LINE
  5
2A5
330
1F
100
AcDbEntity
  8
0
  6
Continuous
 62
     7
370
    50
100
AcDbLine
 10
223.0047209955
 20
330.3014357729
 30
0.0
 11
223.0047209955
 21
190.3014357729
 31
0.0
  0
LINE
  5
2A6
330
1F
100
AcDbEntity
  8
0
  6
Continuous
 62
     7
370
    50
100
AcDbLine
 10
217.6745939766
 20
335.3014357729
 30
0.0
 11
218.6745939766
 21
335.3014357729
 31
0.0
  0
ARC
  5
2A7
330
1F
100
AcDbEntity
  8
0
  6
Continuous
 62
     7
370
    50
100
AcDbCircle
 10
218.3137500584
 20
330.6139357729
 30
0.0
 40
4.701368373498771
100
AcDbArc
 50
356.1887389505
 51
85.5980503477
  0
LINE
  5
2A8
330
1F
100
AcDbEntity
  8
0
  6
Continuous
 62
     7
370
    50
100
AcDbLine
 10
256.9288133583
 20
335.3014357729
 30
0.0
 11
256.9288133583
 21
185.3014357729
 31
0.0
  0
LINE
  5
2A9
330
1F
100
AcDbEntity
  8
0
  6
Continuous
 62
     7
370
    50
100
AcDbLine
 10
256.9288133583
 20
185.3014357729
 30
0.0
 11
250.5835593204
 21
185.3014357729
 31
0.0
  0
ARC
  5
2AA
330
1F
100
AcDbEntity
  8
0
  6
Continuous
 62
     7
370
    50
100
AcDbCircle
 10
250.9444032387
 20
189.9889357729
 30
0.0
 40
4.701368373498708
100
AcDbArc
 50
176.1887389505
 51
265.5980503477
  0
LINE
  5
2AB
330
1F
100
AcDbEntity
  8
0
  6
Continuous
 62
     7
370
    50
100
AcDbLine
 10
246.2534323015
 20
330.3014357729
 30
0.0
 11
246.2534323015
 21
190.3014357729
 31
0.0
  0
ARC
  5
2AC
330
1F
100
AcDbEntity
  8
0
  6
Continuous
 62
     7
370
    50
100
AcDbCircle
 10
250.9444032387
 20
330.6139357729
 30
0.0
 40
4.701368373498831
100
AcDbArc
 50
94.4019496523
 51
183.8112610495
  0
LINE
  5
2AD
330
1F
100
AcDbEntity
  8
0
  6
Continuous
 62
     7
370
    50
100
AcDbLine
 10
256.9288133583
 20
335.3014357729
 30
0.0
 11
250.5835593204
 21
335.3014357729
 31
0.0
  0
LINE
  5
2AE
330
1F
100
AcDbEntity
  8
0
  6
Continuous
 62
     7
370
    50
100
AcDbLine
 10
250.5835593204
 20
185.3014357729
 30
0.0
 11
249.5835593204
 21
185.3014357729
 31
0.0
  0
ARC
  5
2AF
330
1F
100
AcDbEntity
  8
0
  6
Continuous
 62
     7
370
    50
100
AcDbCircle
 10
249.9444032387
 20
189.9889357729
 30
0.0
 40
4.701368373498711
100
AcDbArc
 50
176.1887389505
 51
265.5980503477
  0
LINE
  5
2B0
330
1F
100
AcDbEntity
  8
0
  6
Continuous
 62
     7
370
    50
100
AcDbLine
 10
245.2534323015
 20
190.3014357729
 30
0.0
 11
246.2534323015
 21
190.3014357729
 31
0.0
  0
LINE
  5
2B1
330
1F
100
AcDbEntity
  8
0
  6
Continuous
 62
     7
370
    50
100
AcDbLine
 10
245.2534323015
 20
330.3014357729
 30
0.0
 11
245.2534323015
 21
190.3014357729
 31
0.0
  0
LINE
  5
2B2
330
1F
100
AcDbEntity
  8
0
  6
Continuous
 62
     7
370
    50
100
AcDbLine
 10
246.2534323015
 20
330.3014357729
 30
0.0
 11
245.2534323015
 21
330.3014357729
 31
0.0
  0
ARC
  5
2B3
330
1F
100
AcDbEntity
  8
0
  6
Continuous
 62
     7
370
    50
100
AcDbCircle
 10
249.9444032387
 20
330.6139357729
 30
0.0
 40
4.701368373498832
100
AcDbArc
 50
94.4019496523
 51
183.8112610495
  0
LINE
  5
2B4
330
1F
100
AcDbEntity
  8
0
  6
Continuous
 62
     7
370
    50
100
AcDbLine
 10
249.5835593204
 20
335.3014357729
 30
0.0
 11
250.5835593204
 21
335.3014357729
 31
0.0
  0
LINE
  5
2B5
330
1F
100
AcDbEntity
  8
0
  6
Continuous
 62
     7
370
    50
100
AcDbLine
 10
209.0143399388
 20
335.3014357729
 30
0.0
 11
209.0143399388
 21
185.3014357729
 31
0.0
  0
LINE
  5
2B6
330
1F
100
AcDbEntity
  8
0
  6
Continuous
 62
     7
370
    50
100
AcDbLine
 10
211.3293399388
 20
335.3014357729
 30
0.0
 11
209.0143399388
 21
335.3014357729
 31
0.0
  0
LINE
  5
2B7
330
1F
100
AcDbEntity
  8
0
  6
Continuous
 62
     7
370
    50
100
AcDbLine
 10
211.3293399388
 20
185.3014357729
 30
0.0
 11
209.0143399388
 21
185.3014357729
 31
0.0
  0
LINE
  5
2B8
330
1F
100
AcDbEntity
  8
0
  6
Continuous
 62
     7
370
    50
100
AcDbLine
 10
259.2438133583
 20
335.3014357729
 30
0.0
 11
256.9288133583
 21
335.3014357729
 31
0.0
  0
LINE
  5
2B9
330
1F
100
AcDbEntity
  8
0
  6
Continuous
 62
     7
370
    50
100
AcDbLine
 10
259.2438133583
 20
335.3014357729
 30
0.0
 11
259.2438133583
 21
185.3014357729
 31
0.0
  0
LINE
  5
2BA
330
1F
100
AcDbEntity
  8
0
  6
Continuous
 62
     7
370
    50
100
AcDbLine
 10
259.2438133583
 20
185.3014357729
 30
0.0
 11
256.9288133583
 21
185.3014357729
 31
0.0
  0
ARC
  5
2BB
330
1F
100
AcDbEntity
  8
0
  6
Continuous
 62
     7
370
    50
100
AcDbCircle
 10
228.9947300384
 20
333.4264357729
 30
0.0
 40
1.880547349399591
100
AcDbArc
 50
94.4019496523
 51
183.8112610495
  0
LINE
  5
2BC
330
1F
100
AcDbEntity
  8
0
  6
Continuous
 62
     7
370
    50
100
AcDbLine
 10
228.8503924711
 20
335.3014357729
 30
0.0
 11
232.8140766485
 21
335.3014357729
 31
0.0
  0
LINE
  5
2BD
330
1F
100
AcDbEntity
  8
0
  6
Continuous
 62
     7
370
    50
100
AcDbLine
 10
228.8503924711
 20
185.3014357729
 30
0.0
 11
232.8140766485
 21
185.3014357729
 31
0.0
  0
ARC
  5
2BE
330
1F
100
AcDbEntity
  8
0
  6
Continuous
 62
     7
370
    50
100
AcDbCircle
 10
228.9947300384
 20
187.1764357729
 30
0.0
 40
1.880547349399519
100
AcDbArc
 50
176.1887389505
 51
265.5980503477
  0
LINE
  5
2BF
330
1F
100
AcDbEntity
  8
0
  6
Continuous
 62
     7
370
    50
100
AcDbLine
 10
235.4440766485
 20
335.3014357729
 30
0.0
 11
239.4077608259
 21
335.3014357729
 31
0.0
  0
ARC
  5
2C0
330
1F
100
AcDbEntity
  8
0
  6
Continuous
 62
     7
370
    50
100
AcDbCircle
 10
239.2634232586
 20
333.4264357729
 30
0.0
 40
1.880547349399582
100
AcDbArc
 50
356.1887389505
 51
85.5980503477
  0
ARC
  5
2C1
330
1F
100
AcDbEntity
  8
0
  6
Continuous
 62
     7
370
    50
100
AcDbCircle
 10
239.2634232586
 20
187.1764357729
 30
0.0
 40
1.880547349399521
100
AcDbArc
 50
274.4019496523
 51
3.8112610495
  0
LINE
  5
2C2
330
1F
100
AcDbEntity
  8
0
  6
Continuous
 62
     7
370
    50
100
AcDbLine
 10
235.4440766485
 20
185.3014357729
 30
0.0
 11
239.4077608259
 21
185.3014357729
 31
0.0
  0
LINE
  5
2C3
330
1F
100
AcDbEntity
  8
0
  6
Continuous
 62
     7
370
    50
100
AcDbLine
 10
227.8503924711
 20
335.3014357729
 30
0.0
 11
228.8503924711
 21
335.3014357729
 31
0.0
  0
ARC
  5
2C4
330
1F
100
AcDbEntity
  8
0
  6
Continuous
 62
     7
370
    50
100
AcDbCircle
 10
227.9947300384
 20
333.4264357729
 30
0.0
 40
1.880547349399639
100
AcDbArc
 50
94.4019496523
 51
183.8112610495
  0
LINE
  5
2C5
330
1F
100
AcDbEntity
  8
0
  6
Continuous
 62
     7
370
    50
100
AcDbLine
 10
228.8503924711
 20
185.3014357729
 30
0.0
 11
227.8503924711
 21
185.3014357729
 31
0.0
  0
ARC
  5
2C6
330
1F
100
AcDbEntity
  8
0
  6
Continuous
 62
     7
370
    50
100
AcDbCircle
 10
227.9947300384
 20
187.1764357729
 30
0.0
 40
1.880547349399538
100
AcDbArc
 50
176.1887389505
 51
265.5980503477
  0
LINE
  5
2C7
330
1F
100
AcDbEntity
  8
0
  6
Continuous
 62
     7
370
    50
100
AcDbLine
 10
239.4077608259
 20
335.3014357729
 30
0.0
 11
240.4077608259
 21
335.3014357729
 31
0.0
  0
ARC
  5
2C8
330
1F
100
AcDbEntity
  8
0
  6
Continuous
 62
     7
370
    50
100
AcDbCircle
 10
240.2634232586
 20
333.4264357729
 30
0.0
 40
1.880547349399591
100
AcDbArc
 50
356.1887389505
 51
85.5980503477
  0
LINE
  5
2C9
330
1F
100
AcDbEntity
  8
0
  6
Continuous
 62
     7
370
    50
100
AcDbLine
 10
240.4077608259
 20
185.3014357729
 30
0.0
 11
239.4077608259
 21
185.3014357729
 31
0.0
  0
ARC
  5
2CA
330
1F
100
AcDbEntity
  8
0
  6
Continuous
 62
     7
370
    50
100
AcDbCircle
 10
240.2634232586
 20
187.1764357729
 30
0.0
 40
1.880547349399521
100
AcDbArc
 50
274.4019496523
 51
3.8112610495
  0
LINE
  5
2CB
330
1F
100
AcDbEntity
  8
0
  6
Continuous
 62
     7
370
    50
100
AcDbLine
 10
232.8140766485
 20
185.3014357729
 30
0.0
 11
235.4440766485
 21
185.3014357729
 31
0.0
  0
LINE
  5
2CC
330
1F
100
AcDbEntity
  8
0
  6
Continuous
 62
     7
370
    50
100
AcDbLine
 10
232.8140766485
 20
335.3014357729
 30
0.0
 11
235.4440766485
 21
335.3014357729
 31
0.0
  0
LINE
  5
2CD
330
1F
100
AcDbEntity
  8
0
  6
Continuous
 62
     8
370
    50
100
AcDbLine
 10
232.8140766485
 20
335.3014357729
 30
0.0
 11
232.8140766485
 21
333.3014357729
 31
0.0
  0
LINE
  5
2CE
330
1F
100
AcDbEntity
  8
0
  6
Continuous
 62
     8
370
    50
100
AcDbLine
 10
232.8140766485
 20
309.3014357729
 30
0.0
 11
232.8140766485
 21
211.3014357729
 31
0.0
  0
LINE
  5
2CF
330
1F
100
AcDbEntity
  8
0
  6
Continuous
 62
     8
370
    50
100
AcDbLine
 10
232.8140766485
 20
187.3014357729
 30
0.0
 11
232.8140766485
 21
185.3014357729
 31
0.0
  0
LINE
  5
2D0
330
1F
100
AcDbEntity
  8
0
  6
Continuous
 62
     8
370
    50
100
AcDbLine
 10
235.4440766485
 20
335.3014357729
 30
0.0
 11
235.4440766485
 21
333.3014357729
 31
0.0
  0
LINE
  5
2D1
330
1F
100
AcDbEntity
  8
0
  6
Continuous
 62
     8
370
    50
100
AcDbLine
 10
235.4440766485
 20
309.3014357729
 30
0.0
 11
235.4440766485
 21
211.3014357729
 31
0.0
  0
LINE
  5
2D2
330
1F
100
AcDbEntity
  8
0
  6
Continuous
 62
     8
370
    50
100
AcDbLine
 10
235.4440766485
 20
187.3014357729
 30
0.0
 11
235.4440766485
 21
185.3014357729
 31
0.0
  0
LINE
  5
2D3
330
1F
100
AcDbEntity
  8
0
  6
Continuous
 62
     7
370
    50
100
AcDbLine
 10
161.1947910069
 20
150.985008162
 30
0.0
 11
161.1947910069
 21
149.3519265382
 31
0.0
  0
LINE
  5
2D4
330
1F
100
AcDbEntity
  8
0
  6
Continuous
 62
     7
370
    50
100
AcDbLine
 10
180.1947910069
 20
149.3519265382
 30
0.0
 11
180.1947910069
 21
150.985008162
 31
0.0
  0
LINE
  5
2D5
330
1F
100
AcDbEntity
  8
0
  6
Continuous
 62
     7
370
    50
100
AcDbLine
 10
177.3835735617
 20
135.9636773539
 30
0.0
 11
176.8659354715
 21
137.0789115745
 31
0.0
  0
LINE
  5
2D6
330
1F
100
AcDbEntity
  8
0
  6
Continuous
 62
     7
370
    50
100
AcDbLine
 10
158.476809365
 20
140.3220972051
 30
0.0
 11
157.0625958027
 21
139.5056890933
 31
0.0
  0
LINE
  5
2D7
330
1F
100
AcDbEntity
  8
0
  6
Continuous
 62
     7
370
    50
100
AcDbLine
 10
143.2170360262
 20
149.0839127664
 30
0.0
 11
143.2170360262
 21
26.6027909836
 31
0.0
  0
LINE
  5
2D8
330
1F
100
AcDbEntity
  8
0
  6
Continuous
 62
     7
370
    50
100
AcDbLine
 10
146.7969633176
 20
152.3724214474
 30
0.0
 11
144.8651116651
 21
152.6712475562
 31
0.0
  0
LINE
  5
2D9
330
1F
100
AcDbEntity
  8
0
  6
Continuous
 62
     7
370
    50
100
AcDbLine
 10
198.1725459875
 20
33.6711450222
 30
0.0
 11
198.1725459875
 21
156.1522668051
 31
0.0
  0
LINE
  5
2DA
330
1F
100
AcDbEntity
  8
0
  6
Continuous
 62
     7
370
    50
100
AcDbLine
 10
192.580197073
 20
160.0095638694
 30
0.0
 11
191.1659835106
 21
159.1931557576
 31
0.0
  0
LINE
  5
2DB
330
1F
100
AcDbEntity
  8
0
  6
Continuous
 62
     7
370
    50
100
AcDbLine
 10
159.5234053232
 20
163.6329591201
 30
0.0
 11
159.005767233
 21
164.7481933407
 31
0.0
  0
LINE
  5
2DC
330
1F
100
AcDbEntity
  8
0
  6
Continuous
 62
     7
370
    50
100
AcDbLine
 10
148.8093849407
 20
22.7454939192
 30
0.0
 11
150.2235985031
 21
23.561902031
 31
0.0
  0
LINE
  5
2DD
330
1F
100
AcDbEntity
  8
0
  6
Continuous
 62
     7
370
    50
100
AcDbLine
 10
193.4222690067
 20
28.3340708407
 30
0.0
 11
195.3541206593
 21
28.0352447319
 31
0.0
  0
LWPOLYLINE
  5
2DE
330
1F
100
AcDbEntity
  8
0
  6
Continuous
 62
     7
370
    50
100
AcDbPolyline
 90
        3
 70
   128
 43
0.0
 10
177.6586279532
 20
48.25296987
 10
177.7335589984
 20
47.9452337249
 10
177.9445989726
 20
46.6741981295
  0
LINE
  5
2DF
330
1F
100
AcDbEntity
  8
0
  6
Continuous
 62
     7
370
    50
100
AcDbLine
 10
177.9445989726
 20
46.6741981295
 30
0.0
 11
177.9445989726
 21
36.7511345152
 31
0.0
  0
LWPOLYLINE
  5
2E0
330
1F
100
AcDbEntity
  8
0
  6
Continuous
 62
     7
370
    50
100
AcDbPolyline
 90
       16
 70
   128
 43
0.0
 10
163.9772765856
 20
145.473988007
 10
165.1108311101
 20
144.9150886259
 10
166.3818812593
 20
144.4654389191
 10
167.7591295603
 20
144.1361107548
 10
169.208663589
 20
143.9352132854
 10
170.6947910069
 20
143.8676932734
 10
172.1809184247
 20
143.9352132854
 10
173.6304524534
 20
144.1361107548
 10
175.0077007544
 20
144.4654389191
 10
176.2787509036
 20
144.9150886259
 10
177.4123054281
 20
145.473988007
 10
178.3804524534
 20
146.128375105
 10
179.1593529867
 20
146.8621367376
 10
179.7298279117
 20
147.6572052583
 10
180.0778302425
 20
148.4940034413
 10
180.1947910069
 20
149.3519265382
  0
ARC
  5
2E1
330
1F
100
AcDbEntity
  8
0
  6
Continuous
 62
     7
370
    50
100
AcDbCircle
 10
166.0169756445
 20
149.8747152756
 30
0.0
 40
4.85044046897919
100
AcDbArc
 50
186.1874562376
 51
245.13268472
  0
LWPOLYLINE
  5
2E2
330
1F
100
AcDbEntity
  8
0
  6
Continuous
 62
     7
370
    50
100
AcDbPolyline
 90
       41
 70
   128
 43
0.0
 10
163.9772765856
 20
147.1070696308
 10
165.1108311101
 20
146.5481702496
 10
166.3818812593
 20
146.0985205429
 10
167.7591295603
 20
145.7691923786
 10
169.208663589
 20
145.5682949092
 10
170.6947910069
 20
145.5007748972
 10
172.1809184247
 20
145.5682949092
 10
173.6304524534
 20
145.7691923786
 10
175.0077007544
 20
146.0985205429
 10
176.2787509036
 20
146.5481702496
 10
177.4123054281
 20
147.1070696308
 10
178.3804524534
 20
147.7614567288
 10
179.1593529867
 20
148.4952183614
 10
179.7298279117
 20
149.290286882
 10
180.0778302425
 20
150.127085065
 10
180.1947910069
 20
150.985008162
 10
180.0778302425
 20
151.8429312589
 10
179.7298279117
 20
152.6797294419
 10
179.1593529867
 20
153.4747979626
 10
178.3804524534
 20
154.2085595952
 10
177.4123054281
 20
154.8629466931
 10
176.2787509036
 20
155.4218460743
 10
175.0077007544
 20
155.8714957811
 10
173.6304524534
 20
156.2008239454
 10
172.1809184247
 20
156.4017214147
 10
170.6947910069
 20
156.4692414268
 10
169.208663589
 20
156.4017214147
 10
167.7591295603
 20
156.2008239454
 10
166.3818812593
 20
155.8714957811
 10
165.1108311101
 20
155.4218460743
 10
163.9772765856
 20
154.8629466931
 10
163.0091295603
 20
154.2085595952
 10
162.2302290271
 20
153.4747979626
 10
161.6597541021
 20
152.6797294419
 10
161.3117517712
 20
151.8429312589
 10
161.1947910069
 20
150.985008162
 10
161.3117517712
 20
150.127085065
 10
161.6597541021
 20
149.290286882
 10
162.2302290271
 20
148.4952183614
 10
163.0091295603
 20
147.7614567288
 10
163.9772765856
 20
147.1070696308
  0
LWPOLYLINE
  5
2E3
330
1F
100
AcDbEntity
  8
0
  6
Continuous
 62
     7
370
    50
100
AcDbPolyline
 90
       32
 70
   128
 43
0.0
 10
166.628927015
 20
148.6378348405
 10
167.5306078942
 20
148.2133991003
 10
168.5618308019
 20
147.9024333607
 10
169.6803773509
 20
147.7176685956
 10
170.8404541142
 20
147.6666690963
 10
171.9945674127
 20
147.7515227883
 10
173.0954677125
 20
147.9687557513
 10
174.0980840259
 20
148.3094744425
 10
174.9613691232
 20
148.7597297985
 10
175.6499800111
 20
149.3010883121
 10
176.135724879
 20
149.9113867023
 10
176.3987172749
 20
150.5656392811
 10
176.4281902592
 20
151.2370608712
 10
176.2229372044
 20
151.8981633938
 10
175.7913611948
 20
152.5218812339
 10
175.1511310029
 20
153.0826793099
 10
174.3284577279
 20
153.5575984826
 10
173.3570217105
 20
153.9271955053
 10
172.2765936552
 20
154.1763390324
 10
171.1314064137
 20
154.2948290988
 10
169.9683440861
 20
154.2778147072
 10
168.8350225808
 20
154.1259924286
 10
167.7778402133
 20
153.8455778852
 10
166.8400781541
 20
153.4480512812
 10
166.060128492
 20
152.9496874025
 10
165.4699224578
 20
152.3708893248
 10
165.0936231559
 20
151.7353531095
 10
164.9466363239
 20
151.0690976839
 10
165.03497962
 20
150.3993996234
 10
165.3550362593
 20
149.7536764453
 10
165.8937030854
 20
149.1583641323
 10
166.628927015
 20
148.6378348405
  0
LINE
  5
2E4
330
1F
100
AcDbEntity
  8
0
  6
Continuous
 62
     7
370
    50
100
AcDbLine
 10
156.4715242776
 20
23.5597960185
 30
0.0
 11
149.4004564658
 21
27.6418365776
 31
0.0
  0
ARC
  5
2E5
330
1F
100
AcDbEntity
  8
0
  6
Continuous
 62
     7
370
    50
100
AcDbCircle
 10
176.8523303934
 20
46.4245896671
 30
0.0
 40
3.755964016363218
100
AcDbArc
 50
60.9147795678
 51
77.3021693821
  0
LINE
  5
2E6
330
1F
100
AcDbEntity
  8
0
  6
Continuous
 62
     7
370
    50
100
AcDbLine
 10
178.6781419594
 20
49.7069177765
 30
0.0
 11
183.0088694269
 21
47.2068420251
 31
0.0
  0
ARC
  5
2E7
330
1F
100
AcDbEntity
  8
0
  6
Continuous
 62
     7
370
    50
100
AcDbCircle
 10
183.1502907831
 20
47.4797842421
 30
0.0
 40
0.3074043815823914
100
AcDbArc
 50
242.6096722366
 51
297.3903277634
  0
LINE
  5
2E8
330
1F
100
AcDbEntity
  8
0
  6
Continuous
 62
     7
370
    50
100
AcDbLine
 10
183.2917121394
 20
47.2068420251
 30
0.0
 11
183.5038441737
 21
47.3293032419
 31
0.0
  0
LINE
  5
2E9
330
1F
100
AcDbEntity
  8
0
  6
Continuous
 62
     7
370
    50
100
AcDbLine
 10
190.5749119856
 20
43.2472626828
 30
0.0
 11
190.3627799512
 21
43.124801466
 31
0.0
  0
ARC
  5
2EA
330
1F
100
AcDbEntity
  8
0
  6
Continuous
 62
     7
370
    50
100
AcDbCircle
 10
190.3937653566
 20
43.0431606548
 30
0.0
 40
0.087323063366853
100
AcDbArc
 50
110.7834207995
 51
249.2165792005
  0
LINE
  5
2EB
330
1F
100
AcDbEntity
  8
0
  6
Continuous
 62
     7
370
    50
100
AcDbLine
 10
190.3627799512
 20
42.9615198436
 30
0.0
 11
192.8925026401
 21
41.5011420204
 31
0.0
  0
LINE
  5
2EC
330
1F
100
AcDbEntity
  8
0
  6
Continuous
 62
     7
370
    50
100
AcDbLine
 10
192.8925026401
 20
33.2355359383
 30
0.0
 11
192.402738107
 21
32.1803543786
 31
0.0
  0
ARC
  5
2ED
330
1F
100
AcDbEntity
  8
0
  6
Continuous
 62
     7
370
    50
100
AcDbCircle
 10
190.772157259
 20
33.0346547826
 30
0.0
 40
1.840821306395076
100
AcDbArc
 50
297.6449125053
 51
332.3488790413
  0
LINE
  5
2EE
330
1F
100
AcDbEntity
  8
0
  6
Continuous
 62
     7
370
    50
100
AcDbLine
 10
191.6262809717
 20
31.403981374
 30
0.0
 11
178.4011256801
 21
23.7692617337
 31
0.0
  0
ARC
  5
2EF
330
1F
100
AcDbEntity
  8
0
  6
Continuous
 62
     7
370
    50
100
AcDbCircle
 10
176.6900061009
 20
26.7874888729
 30
0.0
 40
3.469528105915956
100
AcDbArc
 50
286.5434207681
 51
299.5501450762
  0
LINE
  5
2F0
330
1F
100
AcDbEntity
  8
0
  6
Continuous
 62
     7
370
    50
100
AcDbLine
 10
178.0262486307
 20
36.927046015
 30
0.0
 11
177.6779260932
 21
36.1765965776
 31
0.0
  0
ARC
  5
2F1
330
1F
100
AcDbEntity
  8
0
  6
Continuous
 62
     7
370
    50
100
AcDbCircle
 10
177.943344093
 20
36.9563405621
 30
0.0
 40
0.0879279981205834
100
AcDbArc
 50
340.5389980879
 51
69.2579248011
  0
LINE
  5
2F2
330
1F
100
AcDbEntity
  8
0
  6
Continuous
 62
     7
370
    50
100
AcDbLine
 10
177.9445989726
 20
37.0558221705
 30
0.0
 11
177.9744848217
 21
37.0385694371
 31
0.0
  0
LINE
  5
2F3
330
1F
100
AcDbEntity
  8
0
  6
Continuous
 62
     7
370
    50
100
AcDbLine
 10
178.4011256801
 20
23.7692617337
 30
0.0
 11
178.4011256801
 21
21.3196392981
 31
0.0
  0
ARC
  5
2F4
330
1F
100
AcDbEntity
  8
0
  6
Continuous
 62
     7
370
    50
100
AcDbCircle
 10
176.6776965222
 20
24.3668002795
 30
0.0
 40
3.500771073478932
100
AcDbArc
 50
286.60170782
 51
299.4918580243
  0
LINE
  5
2F5
330
1F
100
AcDbEntity
  8
0
  6
Continuous
 62
     7
370
    50
100
AcDbLine
 10
149.4004564658
 20
27.6418365776
 30
0.0
 11
149.4004564658
 21
25.1922141419
 31
0.0
  0
LINE
  5
2F6
330
1F
100
AcDbEntity
  8
0
  6
Continuous
 62
     7
370
    50
100
AcDbLine
 10
156.4715242776
 20
23.5597960185
 30
0.0
 11
156.4715242776
 21
21.1101735828
 31
0.0
  0
LINE
  5
2F7
330
1F
100
AcDbEntity
  8
0
  6
Continuous
 62
     7
370
    50
100
AcDbLine
 10
156.4715242776
 20
21.1101735828
 30
0.0
 11
149.4004564658
 21
25.1922141419
 31
0.0
  0
LINE
  5
2F8
330
1F
100
AcDbEntity
  8
0
  6
Continuous
 62
     7
370
    50
100
AcDbLine
 10
156.6483009729
 20
21.2122245968
 30
0.0
 11
156.4715242776
 21
21.1101735828
 31
0.0
  0
LINE
  5
2F9
330
1F
100
AcDbEntity
  8
0
  6
Continuous
 62
     7
370
    50
100
AcDbLine
 10
191.6262809717
 20
28.9543589384
 30
0.0
 11
191.6262809717
 21
31.403981374
 31
0.0
  0
LINE
  5
2FA
330
1F
100
AcDbEntity
  8
0
  6
Continuous
 62
     7
370
    50
100
AcDbLine
 10
191.6262809717
 20
28.9543589384
 30
0.0
 11
178.4011256801
 21
21.3196392981
 31
0.0
  0
LINE
  5
2FB
330
1F
100
AcDbEntity
  8
0
  6
Continuous
 62
     7
370
    50
100
AcDbLine
 10
192.402738107
 20
32.1803543786
 30
0.0
 11
192.402738107
 21
29.7307319429
 31
0.0
  0
ARC
  5
2FC
330
1F
100
AcDbEntity
  8
0
  6
Continuous
 62
     7
370
    50
100
AcDbCircle
 10
190.772157259
 20
30.585032347
 30
0.0
 40
1.840821306395185
100
AcDbArc
 50
297.6449125053
 51
332.3488790413
  0
LINE
  5
2FD
330
1F
100
AcDbEntity
  8
0
  6
Continuous
 62
     7
370
    50
100
AcDbLine
 10
192.8925026401
 20
30.7859135026
 30
0.0
 11
192.402738107
 21
29.7307319429
 31
0.0
  0
ARC
  5
2FE
330
1F
100
AcDbEntity
  8
0
  6
Continuous
 62
     7
370
    50
100
AcDbCircle
 10
176.5142195013
 20
140.6881335438
 30
0.0
 40
3.905733719843825
100
AcDbArc
 50
277.9773339547
 51
298.8888387806
  0
LINE
  5
2FF
330
1F
100
AcDbEntity
  8
0
  6
Continuous
 62
     7
370
    50
100
AcDbLine
 10
176.9907244826
 20
136.810057759
 30
0.0
 11
177.0562624718
 21
136.8201954227
 31
0.0
  0
LINE
  5
300
330
1F
100
AcDbEntity
  8
0
  6
Continuous
 62
     7
370
    50
100
AcDbLine
 10
156.4715242776
 20
137.0589688706
 30
0.0
 11
156.6483009729
 21
137.1610198846
 31
0.0
  0
LINE
  5
301
330
1F
100
AcDbEntity
  8
0
  6
Continuous
 62
     7
370
    50
100
AcDbLine
 10
149.4004564658
 20
141.1410094297
 30
0.0
 11
156.4715242776
 21
137.0589688706
 31
0.0
  0
LINE
  5
302
330
1F
100
AcDbEntity
  8
0
  6
Continuous
 62
     7
370
    50
100
AcDbLine
 10
151.0268020625
 20
142.0798787583
 30
0.0
 11
149.4004564658
 21
141.1410094297
 31
0.0
  0
ARC
  5
303
330
1F
100
AcDbEntity
  8
0
  6
Continuous
 62
     7
370
    50
100
AcDbCircle
 10
150.9958166571
 20
142.1615195695
 30
0.0
 40
0.0873230633668363
100
AcDbArc
 50
290.7834207994
 51
69.2165792006
  0
LINE
  5
304
330
1F
100
AcDbEntity
  8
0
  6
Continuous
 62
     7
370
    50
100
AcDbLine
 10
150.6378933328
 20
142.4676726114
 30
0.0
 11
151.0268020625
 21
142.2431603807
 31
0.0
  0
LINE
  5
305
330
1F
100
AcDbEntity
  8
0
  6
Continuous
 62
     7
370
    50
100
AcDbLine
 10
147.5047737297
 20
149.8312544507
 30
0.0
 11
146.5175287486
 21
147.7042676468
 31
0.0
  0
LWPOLYLINE
  5
306
330
1F
100
AcDbEntity
  8
0
  6
Continuous
 62
     7
370
    50
100
AcDbPolyline
 90
        9
 70
   128
 43
0.0
 10
147.3633523734
 20
149.9726604836
 10
147.4000463024
 20
149.9646877842
 10
147.4333408502
 20
149.9527356885
 10
147.4619565259
 20
149.937263509
 10
147.4847936452
 20
149.9188658328
 10
147.5009745903
 20
149.8982496723
 10
147.5098775367
 20
149.8762072949
 10
147.511160349
 20
149.853585777
 10
147.5047737297
 20
149.8312544507
  0
LINE
  5
307
330
1F
100
AcDbEntity
  8
0
  6
Continuous
 62
     7
370
    50
100
AcDbLine
 10
147.0088698643
 20
150.0274931768
 30
0.0
 11
147.3633523734
 21
149.9726604836
 31
0.0
  0
LINE
  5
308
330
1F
100
AcDbEntity
  8
0
  6
Continuous
 62
     7
370
    50
100
AcDbLine
 10
147.729913424
 20
155.8924816118
 30
0.0
 11
146.143021683
 21
152.4735756089
 31
0.0
  0
LINE
  5
309
330
1F
100
AcDbEntity
  8
0
  6
Continuous
 62
     7
370
    50
100
AcDbLine
 10
149.9515428244
 20
155.5488315867
 30
0.0
 11
147.729913424
 21
155.8924816118
 31
0.0
  0
ARC
  5
30A
330
1F
100
AcDbEntity
  8
0
  6
Continuous
 62
     7
370
    50
100
AcDbCircle
 10
150.0110568154
 20
155.7785539487
 30
0.0
 40
0.2373062972689472
100
AcDbArc
 50
255.4757485669
 51
321.3904241684
  0
LINE
  5
30B
330
1F
100
AcDbEntity
  8
0
  6
Continuous
 62
     7
370
    50
100
AcDbLine
 10
151.7816480687
 20
159.0456393856
 30
0.0
 11
150.1964917987
 21
155.6304723978
 31
0.0
  0
ARC
  5
30C
330
1F
100
AcDbEntity
  8
0
  6
Continuous
 62
     7
370
    50
100
AcDbCircle
 10
154.0669867636
 20
157.5365101825
 30
0.0
 40
2.738657317421648
100
AcDbArc
 50
93.433502328
 51
146.5611211393
  0
LINE
  5
30D
330
1F
100
AcDbEntity
  8
0
  6
Continuous
 62
     7
370
    50
100
AcDbLine
 10
159.8188521497
 20
161.1853427897
 30
0.0
 11
153.9029684122
 21
160.2702515533
 31
0.0
  0
LWPOLYLINE
  5
30E
330
1F
100
AcDbEntity
  8
0
  6
Continuous
 62
     7
370
    50
100
AcDbPolyline
 90
        9
 70
   128
 43
0.0
 10
159.9602735059
 20
161.3267488227
 10
159.9666601253
 20
161.3044174963
 10
159.965377313
 20
161.2817959784
 10
159.9564743666
 20
161.2597536011
 10
159.9402934214
 20
161.2391374406
 10
159.9174563022
 20
161.2207397644
 10
159.8888406265
 20
161.2052675848
 10
159.8555460787
 20
161.1933154892
 10
159.8188521497
 20
161.1853427897
  0
LINE
  5
30F
330
1F
100
AcDbEntity
  8
0
  6
Continuous
 62
     7
370
    50
100
AcDbLine
 10
159.6411463358
 20
162.0142978024
 30
0.0
 11
159.9602735059
 21
161.3267488227
 31
0.0
  0
LINE
  5
310
330
1F
100
AcDbEntity
  8
0
  6
Continuous
 62
     7
370
    50
100
AcDbLine
 10
169.0242479651
 20
164.1033987203
 30
0.0
 11
159.6411463358
 21
162.6519851273
 31
0.0
  0
LINE
  5
311
330
1F
100
AcDbEntity
  8
0
  6
Continuous
 62
     7
370
    50
100
AcDbLine
 10
169.6195317688
 20
162.8208793666
 30
0.0
 11
169.0242479651
 21
164.1033987203
 31
0.0
  0
ARC
  5
312
330
1F
100
AcDbEntity
  8
0
  6
Continuous
 62
     7
370
    50
100
AcDbCircle
 10
169.8049667521
 20
162.9689609174
 30
0.0
 40
0.2373062972690501
100
AcDbArc
 50
218.6095758316
 51
284.5242514331
  0
LINE
  5
313
330
1F
100
AcDbEntity
  8
0
  6
Continuous
 62
     7
370
    50
100
AcDbLine
 10
175.7803644806
 20
163.6543297918
 30
0.0
 11
169.8644807431
 21
162.7392385554
 31
0.0
  0
ARC
  5
314
330
1F
100
AcDbEntity
  8
0
  6
Continuous
 62
     7
370
    50
100
AcDbCircle
 10
176.5619138456
 20
159.1159932279
 30
0.0
 40
4.605140407956778
100
AcDbArc
 50
62.642825155
 51
99.7710969793
  0
LINE
  5
315
330
1F
100
AcDbEntity
  8
0
  6
Continuous
 62
     7
370
    50
100
AcDbLine
 10
183.0088694269
 20
160.7060148772
 30
0.0
 11
178.6781419594
 21
163.2060906286
 31
0.0
  0
ARC
  5
316
330
1F
100
AcDbEntity
  8
0
  6
Continuous
 62
     7
370
    50
100
AcDbCircle
 10
183.1502907831
 20
160.9789570942
 30
0.0
 40
0.3074043815824103
100
AcDbArc
 50
242.6096722366
 51
297.3903277634
  0
LINE
  5
317
330
1F
100
AcDbEntity
  8
0
  6
Continuous
 62
     7
370
    50
100
AcDbLine
 10
184.9180577361
 20
161.6448842058
 30
0.0
 11
183.2917121394
 21
160.7060148772
 31
0.0
  0
LINE
  5
318
330
1F
100
AcDbEntity
  8
0
  6
Continuous
 62
     7
370
    50
100
AcDbLine
 10
190.7516886809
 20
158.2772007446
 30
0.0
 11
184.9180577361
 21
161.6448842058
 31
0.0
  0
LINE
  5
319
330
1F
100
AcDbEntity
  8
0
  6
Continuous
 62
     7
370
    50
100
AcDbLine
 10
190.3627799512
 20
156.6239743181
 30
0.0
 11
190.7516886809
 21
156.8484865489
 31
0.0
  0
ARC
  5
31A
330
1F
100
AcDbEntity
  8
0
  6
Continuous
 62
     7
370
    50
100
AcDbCircle
 10
190.3937653566
 20
156.5423335069
 30
0.0
 40
0.0873230633668464
100
AcDbArc
 50
110.7834207995
 51
249.2165792005
  0
LINE
  5
31B
330
1F
100
AcDbEntity
  8
0
  6
Continuous
 62
     7
370
    50
100
AcDbLine
 10
194.6935074187
 20
153.9606169444
 30
0.0
 11
190.3627799512
 21
156.4606926957
 31
0.0
  0
LWPOLYLINE
  5
31C
330
1F
100
AcDbEntity
  8
0
  6
Continuous
 62
     7
370
    50
100
AcDbPolyline
 90
        3
 70
   128
 43
0.0
 10
195.1088314112
 20
153.6606451756
 10
194.952247096
 20
153.7902962543
 10
194.6935074187
 20
153.9606169444
  0
LINE
  5
31D
330
1F
100
AcDbEntity
  8
0
  6
Continuous
 62
     7
370
    50
100
AcDbLine
 10
192.402738107
 20
145.6795272307
 30
0.0
 11
193.0465308411
 21
147.0665574776
 31
0.0
  0
ARC
  5
31E
330
1F
100
AcDbEntity
  8
0
  6
Continuous
 62
     7
370
    50
100
AcDbCircle
 10
190.772157259
 20
146.5338276347
 30
0.0
 40
1.840821306394911
100
AcDbArc
 50
297.6449125053
 51
332.3488790413
  0
LINE
  5
31F
330
1F
100
AcDbEntity
  8
0
  6
Continuous
 62
     7
370
    50
100
AcDbLine
 10
178.4011256801
 20
137.2684345859
 30
0.0
 11
191.6262809717
 21
144.9031542261
 31
0.0
  0
LINE
  5
320
330
1F
100
AcDbEntity
  8
0
  6
Continuous
 62
     7
370
    50
100
AcDbLine
 10
178.4011256801
 20
137.2684345859
 30
0.0
 11
178.4011256801
 21
134.8188121502
 31
0.0
  0
ARC
  5
321
330
1F
100
AcDbEntity
  8
0
  6
Continuous
 62
     7
370
    50
100
AcDbCircle
 10
176.6776965222
 20
137.8659731316
 30
0.0
 40
3.500771073477497
100
AcDbArc
 50
286.60170782
 51
299.4918580243
  0
LINE
  5
322
330
1F
100
AcDbEntity
  8
0
  6
Continuous
 62
     7
370
    50
100
AcDbLine
 10
156.4715242776
 20
134.6093464349
 30
0.0
 11
156.4715242776
 21
137.0589688706
 31
0.0
  0
LINE
  5
323
330
1F
100
AcDbEntity
  8
0
  6
Continuous
 62
     7
370
    50
100
AcDbLine
 10
156.4715242776
 20
134.6093464349
 30
0.0
 11
156.6483009729
 21
134.7113974489
 31
0.0
  0
LINE
  5
324
330
1F
100
AcDbEntity
  8
0
  6
Continuous
 62
     7
370
    50
100
AcDbLine
 10
149.4004564658
 20
138.691386994
 30
0.0
 11
149.4004564658
 21
141.1410094297
 31
0.0
  0
LINE
  5
325
330
1F
100
AcDbEntity
  8
0
  6
Continuous
 62
     7
370
    50
100
AcDbLine
 10
149.4004564658
 20
138.691386994
 30
0.0
 11
156.4715242776
 21
134.6093464349
 31
0.0
  0
LINE
  5
326
330
1F
100
AcDbEntity
  8
0
  6
Continuous
 62
     7
370
    50
100
AcDbLine
 10
191.6262809717
 20
142.4535317905
 30
0.0
 11
191.6262809717
 21
144.9031542261
 31
0.0
  0
LINE
  5
327
330
1F
100
AcDbEntity
  8
0
  6
Continuous
 62
     7
370
    50
100
AcDbLine
 10
178.4011256801
 20
134.8188121502
 30
0.0
 11
191.6262809717
 21
142.4535317905
 31
0.0
  0
LINE
  5
328
330
1F
100
AcDbEntity
  8
0
  6
Continuous
 62
     7
370
    50
100
AcDbLine
 10
192.402738107
 20
145.6795272307
 30
0.0
 11
192.402738107
 21
143.229904795
 31
0.0
  0
ARC
  5
329
330
1F
100
AcDbEntity
  8
0
  6
Continuous
 62
     7
370
    50
100
AcDbCircle
 10
190.772157259
 20
144.0842051991
 30
0.0
 40
1.840821306395129
100
AcDbArc
 50
297.6449125053
 51
332.3488790413
  0
LINE
  5
32A
330
1F
100
AcDbEntity
  8
0
  6
Continuous
 62
     7
370
    50
100
AcDbLine
 10
192.402738107
 20
143.229904795
 30
0.0
 11
192.8925026401
 21
144.2850863547
 31
0.0
  0
ARC
  5
32B
330
1F
100
AcDbEntity
  8
0
  6
Continuous
 62
     7
370
    50
100
AcDbCircle
 10
172.2784254613
 20
20.8596864396
 30
0.0
 40
5.429473453505476
100
AcDbArc
 50
276.0247979745
 51
353.9768652481
  0
LINE
  5
32C
330
1F
100
AcDbEntity
  8
0
  6
Continuous
 62
     7
370
    50
100
AcDbLine
 10
172.8482969618
 20
15.460202348
 30
0.0
 11
165.7710856898
 21
14.3654725831
 31
0.0
  0
LINE
  5
32D
330
1F
100
AcDbEntity
  8
0
  6
Continuous
 62
     7
370
    50
100
AcDbLine
 10
165.7710856898
 20
136.846594366
 30
0.0
 11
165.7710856898
 21
14.3654725831
 31
0.0
  0
LINE
  5
32E
330
1F
100
AcDbEntity
  8
0
  6
Continuous
 62
     7
370
    50
100
AcDbLine
 10
172.8482969618
 20
137.9413241309
 30
0.0
 11
165.7710856898
 21
136.846594366
 31
0.0
  0
ARC
  5
32F
330
1F
100
AcDbEntity
  8
0
  6
Continuous
 62
     7
370
    50
100
AcDbCircle
 10
173.8944247314
 20
134.2918004689
 30
0.0
 40
3.796499212382387
100
AcDbArc
 50
4.7424823785
 51
105.9948311059
  0
LINE
  5
330
330
1F
100
AcDbEntity
  8
0
  6
Continuous
 62
     7
370
    50
100
AcDbLine
 10
177.6779260932
 20
134.6056853434
 30
0.0
 11
177.6779260932
 21
20.2899716794
 31
0.0
  0
LINE
  5
331
330
1F
100
AcDbEntity
  8
0
  6
Continuous
 62
     7
370
    50
100
AcDbLine
 10
165.2534475996
 20
137.9618285866
 30
0.0
 11
165.7710856898
 21
136.846594366
 31
0.0
  0
LINE
  5
332
330
1F
100
AcDbEntity
  8
0
  6
Continuous
 62
     7
370
    50
100
AcDbLine
 10
172.3306588716
 20
139.0565583515
 30
0.0
 11
165.2534475996
 21
137.9618285866
 31
0.0
  0
LINE
  5
333
330
1F
100
AcDbEntity
  8
0
  6
Continuous
 62
     7
370
    50
100
AcDbLine
 10
172.8482969618
 20
137.9413241309
 30
0.0
 11
172.3306588716
 21
139.0565583515
 31
0.0
  0
ARC
  5
334
330
1F
100
AcDbEntity
  8
0
  6
Continuous
 62
     7
370
    50
100
AcDbCircle
 10
164.5682893229
 20
141.9404369742
 30
0.0
 40
4.037173090973809
100
AcDbArc
 50
242.642825155
 51
279.7710969793
  0
ARC
  5
335
330
1F
100
AcDbEntity
  8
0
  6
Continuous
 62
     7
370
    50
100
AcDbCircle
 10
164.5648945031
 20
143.8507604629
 30
0.0
 40
7.107266696277515
100
AcDbArc
 50
242.642825155
 51
279.7710969793
  0
LINE
  5
336
330
1F
100
AcDbEntity
  8
0
  6
Continuous
 62
     7
370
    50
100
AcDbLine
 10
161.298849114
 20
137.5383768078
 30
0.0
 11
162.7130626764
 21
138.3547849196
 31
0.0
  0
LINE
  5
337
330
1F
100
AcDbEntity
  8
0
  6
Continuous
 62
     7
370
    50
100
AcDbLine
 10
161.298849114
 20
137.5383768078
 30
0.0
 11
161.298849114
 21
15.0572550249
 31
0.0
  0
ARC
  5
338
330
1F
100
AcDbEntity
  8
0
  6
Continuous
 62
     7
370
    50
100
AcDbCircle
 10
164.5648945031
 20
21.36963868
 30
0.0
 40
7.107266696277136
100
AcDbArc
 50
242.642825155
 51
279.7710969793
  0
ARC
  5
339
330
1F
100
AcDbEntity
  8
0
  6
Continuous
 62
     7
370
    50
100
AcDbCircle
 10
173.3405067808
 20
135.1832828995
 30
0.0
 40
4.002755991404435
100
AcDbArc
 50
28.2669909354
 51
104.6129546033
  0
LINE
  5
33A
330
1F
100
AcDbEntity
  8
0
  6
Continuous
 62
     7
370
    50
100
AcDbLine
 10
149.2236797705
 20
27.7438875916
 30
0.0
 11
156.6483009729
 21
23.4577450045
 31
0.0
  0
LINE
  5
33B
330
1F
100
AcDbEntity
  8
0
  6
Continuous
 62
     7
370
    50
100
AcDbLine
 10
149.2236797705
 20
27.7438875916
 30
0.0
 11
149.2236797705
 21
23.6611835321
 31
0.0
  0
ARC
  5
33C
330
1F
100
AcDbEntity
  8
0
  6
Continuous
 62
     7
370
    50
100
AcDbCircle
 10
148.3615310356
 20
23.5213291383
 30
0.0
 40
0.8734183948569941
100
AcDbArc
 50
230.7967147643
 51
9.2140369905
  0
LINE
  5
33D
330
1F
100
AcDbEntity
  8
0
  6
Continuous
 62
     7
370
    50
100
AcDbLine
 10
147.8094662081
 20
22.8445100202
 30
0.0
 11
144.5731316293
 21
24.7128062047
 31
0.0
  0
LINE
  5
33E
330
1F
100
AcDbEntity
  8
0
  6
Continuous
 62
     7
370
    50
100
AcDbLine
 10
144.5731316293
 20
147.1939279875
 30
0.0
 11
144.5731316293
 21
24.7128062047
 31
0.0
  0
LINE
  5
33F
330
1F
100
AcDbEntity
  8
0
  6
Continuous
 62
     7
370
    50
100
AcDbLine
 10
147.8094662081
 20
145.325631803
 30
0.0
 11
144.5731316293
 21
147.1939279875
 31
0.0
  0
ARC
  5
340
330
1F
100
AcDbEntity
  8
0
  6
Continuous
 62
     7
370
    50
100
AcDbCircle
 10
146.1532475677
 20
142.7364203629
 30
0.0
 40
3.073609615144033
100
AcDbArc
 50
2.6054784857
 51
57.39452166
  0
LINE
  5
341
330
1F
100
AcDbEntity
  8
0
  6
Continuous
 62
     7
370
    50
100
AcDbLine
 10
149.2236797705
 20
138.793438008
 30
0.0
 11
149.2236797705
 21
142.8761420674
 31
0.0
  0
LINE
  5
342
330
1F
100
AcDbEntity
  8
0
  6
Continuous
 62
     7
370
    50
100
AcDbLine
 10
149.2236797705
 20
138.793438008
 30
0.0
 11
156.6483009729
 21
134.5072954209
 31
0.0
  0
LINE
  5
343
330
1F
100
AcDbEntity
  8
0
  6
Continuous
 62
     7
370
    50
100
AcDbLine
 10
156.6483009729
 20
134.5072954209
 30
0.0
 11
156.6483009729
 21
138.5899994804
 31
0.0
  0
ARC
  5
344
330
1F
100
AcDbEntity
  8
0
  6
Continuous
 62
     7
370
    50
100
AcDbCircle
 10
157.5104497078
 20
138.7298538742
 30
0.0
 40
0.8734183948569502
100
AcDbArc
 50
50.7967147643
 51
189.2140369905
  0
LINE
  5
345
330
1F
100
AcDbEntity
  8
0
  6
Continuous
 62
     7
370
    50
100
AcDbLine
 10
161.298849114
 20
137.5383768078
 30
0.0
 11
158.0625145353
 21
139.4066729923
 31
0.0
  0
LINE
  5
346
330
1F
100
AcDbEntity
  8
0
  6
Continuous
 62
     7
370
    50
100
AcDbLine
 10
161.298849114
 20
15.0572550249
 30
0.0
 11
158.0625145353
 21
16.9255512095
 31
0.0
  0
ARC
  5
347
330
1F
100
AcDbEntity
  8
0
  6
Continuous
 62
     7
370
    50
100
AcDbCircle
 10
159.7187331757
 20
19.5147626496
 30
0.0
 40
3.073609615144055
100
AcDbArc
 50
182.6054784857
 51
237.39452166
  0
LINE
  5
348
330
1F
100
AcDbEntity
  8
0
  6
Continuous
 62
     7
370
    50
100
AcDbLine
 10
156.6483009729
 20
23.4577450045
 30
0.0
 11
156.6483009729
 21
19.3750409451
 31
0.0
  0
LINE
  5
349
330
1F
100
AcDbEntity
  8
0
  6
Continuous
 62
     7
370
    50
100
AcDbLine
 10
159.4767280977
 20
140.2230811041
 30
0.0
 11
158.0625145353
 21
139.4066729923
 31
0.0
  0
LINE
  5
34A
330
1F
100
AcDbEntity
  8
0
  6
Continuous
 62
     7
370
    50
100
AcDbLine
 10
162.7130626764
 20
138.3547849196
 30
0.0
 11
159.4767280977
 21
140.2230811041
 31
0.0
  0
ARC
  5
34B
330
1F
100
AcDbEntity
  8
0
  6
Continuous
 62
     7
370
    50
100
AcDbCircle
 10
158.890887988
 20
139.4053184459
 30
0.0
 40
1.005954471803735
100
AcDbArc
 50
54.3824225248
 51
114.3071190461
  0
LINE
  5
34C
330
1F
100
AcDbEntity
  8
0
  6
Continuous
 62
     7
370
    50
100
AcDbLine
 10
149.4004564658
 20
138.895489022
 30
0.0
 11
149.2236797705
 21
138.793438008
 31
0.0
  0
LINE
  5
34D
330
1F
100
AcDbEntity
  8
0
  6
Continuous
 62
     7
370
    50
100
AcDbLine
 10
150.6378933328
 20
143.6925501793
 30
0.0
 11
149.2236797705
 21
142.8761420674
 31
0.0
  0
LINE
  5
34E
330
1F
100
AcDbEntity
  8
0
  6
Continuous
 62
     7
370
    50
100
AcDbLine
 10
147.8094662081
 20
145.325631803
 30
0.0
 11
149.2236797705
 21
146.1420399149
 31
0.0
  0
ARC
  5
34F
330
1F
100
AcDbEntity
  8
0
  6
Continuous
 62
     7
370
    50
100
AcDbCircle
 10
147.5674611301
 20
143.5528284747
 30
0.0
 40
3.07360961514404
100
AcDbArc
 50
2.6054784857
 51
57.39452166
  0
LINE
  5
350
330
1F
100
AcDbEntity
  8
0
  6
Continuous
 62
     7
370
    50
100
AcDbLine
 10
150.6378933328
 20
141.8553665275
 30
0.0
 11
150.6378933328
 21
143.6925501793
 31
0.0
  0
LINE
  5
351
330
1F
100
AcDbEntity
  8
0
  6
Continuous
 62
     7
370
    50
100
AcDbLine
 10
145.9873451917
 20
148.0103360994
 30
0.0
 11
144.5731316293
 21
147.1939279875
 31
0.0
  0
LINE
  5
352
330
1F
100
AcDbEntity
  8
0
  6
Continuous
 62
     7
370
    50
100
AcDbLine
 10
149.2236797705
 20
146.1420399149
 30
0.0
 11
145.9873451917
 21
148.0103360994
 31
0.0
  0
ARC
  5
353
330
1F
100
AcDbEntity
  8
0
  6
Continuous
 62
     7
370
    50
100
AcDbCircle
 10
146.3968457731
 20
149.0916458048
 30
0.0
 40
1.156253175285857
100
AcDbArc
 50
160.5389980879
 51
249.2579248011
  0
ARC
  5
354
330
1F
100
AcDbEntity
  8
0
  6
Continuous
 62
     7
370
    50
100
AcDbCircle
 10
145.294039497
 20
149.0975264424
 30
0.0
 40
2.035533156491774
100
AcDbArc
 50
160.5389980879
 51
249.2579248011
  0
LINE
  5
355
330
1F
100
AcDbEntity
  8
0
  6
Continuous
 62
     7
370
    50
100
AcDbLine
 10
143.3747994505
 20
149.7756952083
 30
0.0
 11
145.3066511031
 21
149.4768690995
 31
0.0
  0
ARC
  5
356
330
1F
100
AcDbEntity
  8
0
  6
Continuous
 62
     7
370
    50
100
AcDbCircle
 10
145.5441411501
 20
26.8410247286
 30
0.0
 40
2.339267743288878
100
AcDbArc
 50
185.8452026488
 51
245.4749383088
  0
LINE
  5
357
330
1F
100
AcDbEntity
  8
0
  6
Continuous
 62
     7
370
    50
100
AcDbLine
 10
194.8243542927
 20
144.5041076491
 30
0.0
 11
192.8925026401
 21
144.8029337579
 31
0.0
  0
ARC
  5
358
330
1F
100
AcDbEntity
  8
0
  6
Continuous
 62
     7
370
    50
100
AcDbCircle
 10
211.9663970749
 20
144.7676802327
 30
0.0
 40
19.07392701357929
100
AcDbArc
 50
158.7727964365
 51
179.8941025959
  0
LINE
  5
359
330
1F
100
AcDbEntity
  8
0
  6
Continuous
 62
     7
370
    50
100
AcDbLine
 10
194.1865978656
 20
151.6737233688
 30
0.0
 11
196.1184495182
 21
151.3748972601
 31
0.0
  0
ARC
  5
35A
330
1F
100
AcDbEntity
  8
0
  6
Continuous
 62
     7
370
    50
100
AcDbCircle
 10
213.8982487275
 20
144.4688541239
 30
0.0
 40
19.07392701357891
100
AcDbArc
 50
158.7727964365
 51
179.8941025959
  0
LINE
  5
35B
330
1F
100
AcDbEntity
  8
0
  6
Continuous
 62
     7
370
    50
100
AcDbLine
 10
198.0147825632
 20
155.4604843632
 30
0.0
 11
198.0147825632
 21
32.9793625804
 31
0.0
  0
LINE
  5
35C
330
1F
100
AcDbEntity
  8
0
  6
Continuous
 62
     7
370
    50
100
AcDbLine
 10
198.0147825632
 20
32.9793625804
 30
0.0
 11
196.1184495182
 21
28.8937754772
 31
0.0
  0
LWPOLYLINE
  5
35D
330
1F
100
AcDbEntity
  8
0
  6
Continuous
 62
     7
370
    50
100
AcDbPolyline
 90
        9
 70
   128
 43
0.0
 10
194.8243542927
 20
30.1883939851
 10
194.8492199696
 20
29.4454702176
 10
194.9228614263
 20
28.8382411579
 10
195.0424486628
 20
28.3900422784
 10
195.2033860088
 20
28.1180976106
 10
195.3994887322
 20
28.0328578357
 10
195.6232207155
 20
28.1375986702
 10
195.865984064
 20
28.4282949828
 10
196.1184495182
 20
28.8937754772
  0
LINE
  5
35E
330
1F
100
AcDbEntity
  8
0
  6
Continuous
 62
     7
370
    50
100
AcDbLine
 10
194.8243542927
 20
144.5041076491
 30
0.0
 11
194.8243542927
 21
30.1883939851
 31
0.0
  0
LINE
  5
35F
330
1F
100
AcDbEntity
  8
0
  6
Continuous
 62
     7
370
    50
100
AcDbLine
 10
198.0147825632
 20
155.4604843632
 30
0.0
 11
196.1184495182
 21
151.3748972601
 31
0.0
  0
LINE
  5
360
330
1F
100
AcDbEntity
  8
0
  6
Continuous
 62
     7
370
    50
100
AcDbLine
 10
143.3747994505
 20
149.7756952083
 30
0.0
 11
144.5593801215
 21
152.3278352581
 31
0.0
  0
LINE
  5
361
330
1F
100
AcDbEntity
  8
0
  6
Continuous
 62
     7
370
    50
100
AcDbLine
 10
146.4912317741
 20
152.0290091493
 30
0.0
 11
144.5593801215
 21
152.3278352581
 31
0.0
  0
LINE
  5
362
330
1F
100
AcDbEntity
  8
0
  6
Continuous
 62
     7
370
    50
100
AcDbLine
 10
145.3066511031
 20
149.4768690995
 30
0.0
 11
146.4912317741
 21
152.0290091493
 31
0.0
  0
LWPOLYLINE
  5
363
330
1F
100
AcDbEntity
  8
0
  6
Continuous
 62
     7
370
    50
100
AcDbPolyline
 90
        9
 70
   128
 43
0.0
 10
147.0088698643
 20
151.5111617461
 10
146.9989235935
 20
151.8083312532
 10
146.9694670108
 20
152.051222877
 10
146.9216321162
 20
152.2305024288
 10
146.8572571778
 20
152.3392802959
 10
146.7788160884
 20
152.3733762059
 10
146.6893232951
 20
152.3314798721
 10
146.5922179558
 20
152.215201347
 10
146.4912317741
 20
152.0290091493
  0
LINE
  5
364
330
1F
100
AcDbEntity
  8
0
  6
Continuous
 62
     7
370
    50
100
AcDbLine
 10
147.0088698643
 20
148.7628459018
 30
0.0
 11
147.0088698643
 21
151.5111617461
 31
0.0
  0
LINE
  5
365
330
1F
100
AcDbEntity
  8
0
  6
Continuous
 62
     7
370
    50
100
AcDbLine
 10
149.7264698378
 20
155.5836467262
 30
0.0
 11
149.7264698378
 21
157.3661414043
 31
0.0
  0
ARC
  5
366
330
1F
100
AcDbEntity
  8
0
  6
Continuous
 62
     7
370
    50
100
AcDbCircle
 10
157.3560276117
 20
157.3520399942
 30
0.0
 40
7.629570805429373
100
AcDbArc
 50
158.7727964365
 51
179.8941025959
  0
LINE
  5
367
330
1F
100
AcDbEntity
  8
0
  6
Continuous
 62
     7
370
    50
100
AcDbLine
 10
150.244107928
 20
160.1144572487
 30
0.0
 11
151.428688599
 21
162.6665972985
 31
0.0
  0
LINE
  5
368
330
1F
100
AcDbEntity
  8
0
  6
Continuous
 62
     7
370
    50
100
AcDbLine
 10
192.8925026401
 20
30.4872200939
 30
0.0
 11
194.8243542927
 21
30.1883939851
 31
0.0
  0
LINE
  5
369
330
1F
100
AcDbEntity
  8
0
  6
Continuous
 62
     7
370
    50
100
AcDbLine
 10
192.8925026401
 20
144.8029337579
 30
0.0
 11
192.8925026401
 21
30.4872200939
 31
0.0
  0
LINE
  5
36A
330
1F
100
AcDbEntity
  8
0
  6
Continuous
 62
     7
370
    50
100
AcDbLine
 10
198.0147825632
 20
155.4604843632
 30
0.0
 11
196.0829309106
 21
155.759310472
 31
0.0
  0
LINE
  5
36B
330
1F
100
AcDbEntity
  8
0
  6
Continuous
 62
     7
370
    50
100
AcDbLine
 10
196.0829309106
 20
155.759310472
 30
0.0
 11
194.1865978656
 21
151.6737233688
 31
0.0
  0
LWPOLYLINE
  5
36C
330
1F
100
AcDbEntity
  8
0
  6
Continuous
 62
     7
370
    50
100
AcDbPolyline
 90
        5
 70
   128
 43
0.0
 10
144.5593801215
 20
152.3278352581
 10
144.6603663032
 20
152.5140274558
 10
144.7574716426
 20
152.6303059809
 10
144.8469644359
 20
152.6722023147
 10
144.8651116651
 20
152.6712475562
  0
ARC
  5
36D
330
1F
100
AcDbEntity
  8
0
  6
Continuous
 62
     7
370
    50
100
AcDbCircle
 10
194.9927362406
 20
156.1445337666
 30
0.0
 40
1.156253175285804
100
AcDbArc
 50
340.5389980879
 51
69.2579248011
  0
LINE
  5
36E
330
1F
100
AcDbEntity
  8
0
  6
Continuous
 62
     7
370
    50
100
AcDbLine
 10
195.402236822
 20
157.2258434721
 30
0.0
 11
196.8164503844
 21
158.0422515839
 31
0.0
  0
ARC
  5
36F
330
1F
100
AcDbEntity
  8
0
  6
Continuous
 62
     7
370
    50
100
AcDbCircle
 10
196.0955425167
 20
156.1386531291
 30
0.0
 40
2.03553315649175
100
AcDbArc
 50
340.5389980879
 51
69.2579248011
  0
LWPOLYLINE
  5
370
330
1F
100
AcDbEntity
  8
0
  6
Continuous
 62
     7
370
    50
100
AcDbPolyline
 90
        3
 70
   128
 43
0.0
 10
198.1725459875
 20
33.6711450222
 10
198.1329356957
 20
33.3222691196
 10
198.0147825632
 20
32.9793625804
  0
LINE
  5
371
330
1F
100
AcDbEntity
  8
0
  6
Continuous
 62
     7
370
    50
100
AcDbLine
 10
183.3270674784
 20
47.4313542559
 30
0.0
 11
190.7516886809
 21
43.1452116688
 31
0.0
  0
LINE
  5
372
330
1F
100
AcDbEntity
  8
0
  6
Continuous
 62
     7
370
    50
100
AcDbLine
 10
183.3270674784
 20
47.4313542559
 30
0.0
 11
183.3270674784
 21
47.2272522279
 31
0.0
  0
LINE
  5
373
330
1F
100
AcDbEntity
  8
0
  6
Continuous
 62
     7
370
    50
100
AcDbLine
 10
178.6765193373
 20
166.8813946519
 30
0.0
 11
181.9128539161
 21
165.0130984673
 31
0.0
  0
ARC
  5
374
330
1F
100
AcDbEntity
  8
0
  6
Continuous
 62
     7
370
    50
100
AcDbCircle
 10
180.2566352757
 20
162.4238870272
 30
0.0
 40
3.073609615144141
100
AcDbArc
 50
2.6054784857
 51
57.39452166
  0
LINE
  5
375
330
1F
100
AcDbEntity
  8
0
  6
Continuous
 62
     7
370
    50
100
AcDbLine
 10
183.3270674784
 20
160.72642508
 30
0.0
 11
183.3270674784
 21
162.5636087317
 31
0.0
  0
LINE
  5
376
330
1F
100
AcDbEntity
  8
0
  6
Continuous
 62
     7
370
    50
100
AcDbLine
 10
190.7516886809
 20
156.236180465
 30
0.0
 11
190.7516886809
 21
158.2774661447
 31
0.0
  0
ARC
  5
377
330
1F
100
AcDbEntity
  8
0
  6
Continuous
 62
     7
370
    50
100
AcDbCircle
 10
191.6138374158
 20
158.4173205385
 30
0.0
 40
0.8734183948569681
100
AcDbArc
 50
50.7967147643
 51
189.2140369905
  0
LINE
  5
378
330
1F
100
AcDbEntity
  8
0
  6
Continuous
 62
     7
370
    50
100
AcDbLine
 10
192.1659022433
 20
159.0941396566
 30
0.0
 11
195.402236822
 21
157.2258434721
 31
0.0
  0
LINE
  5
379
330
1F
100
AcDbEntity
  8
0
  6
Continuous
 62
     7
370
    50
100
AcDbLine
 10
190.7516886809
 20
43.1452116688
 30
0.0
 11
190.7516886809
 21
42.7370076129
 31
0.0
  0
LINE
  5
37A
330
1F
100
AcDbEntity
  8
0
  6
Continuous
 62
     7
370
    50
100
AcDbLine
 10
193.5801158056
 20
159.9105477685
 30
0.0
 11
192.1659022433
 21
159.0941396566
 31
0.0
  0
LINE
  5
37B
330
1F
100
AcDbEntity
  8
0
  6
Continuous
 62
     7
370
    50
100
AcDbLine
 10
193.5801158056
 20
159.9105477685
 30
0.0
 11
196.8164503844
 21
158.0422515839
 31
0.0
  0
LINE
  5
37C
330
1F
100
AcDbEntity
  8
0
  6
Continuous
 62
     7
370
    50
100
AcDbLine
 10
149.7264698378
 20
157.3661414043
 30
0.0
 11
147.7946181853
 21
157.6649675131
 31
0.0
  0
LINE
  5
37D
330
1F
100
AcDbEntity
  8
0
  6
Continuous
 62
     7
370
    50
100
AcDbLine
 10
148.3122562755
 20
160.4132833575
 30
0.0
 11
150.244107928
 21
160.1144572487
 31
0.0
  0
ARC
  5
37E
330
1F
100
AcDbEntity
  8
0
  6
Continuous
 62
     7
370
    50
100
AcDbCircle
 10
155.4241759592
 20
157.650866103
 30
0.0
 40
7.629570805431156
100
AcDbArc
 50
158.7727964365
 51
179.8941025959
  0
LINE
  5
37F
330
1F
100
AcDbEntity
  8
0
  6
Continuous
 62
     7
370
    50
100
AcDbLine
 10
153.2883794335
 20
163.7401739656
 30
0.0
 11
157.7092946833
 21
164.4240178309
 31
0.0
  0
ARC
  5
380
330
1F
100
AcDbEntity
  8
0
  6
Continuous
 62
     7
370
    50
100
AcDbCircle
 10
158.1277457911
 20
162.9642083661
 30
0.0
 40
1.51859968495299
100
AcDbArc
 50
4.7424823785
 51
105.9948311059
  0
LINE
  5
381
330
1F
100
AcDbEntity
  8
0
  6
Continuous
 62
     7
370
    50
100
AcDbLine
 10
159.6411463358
 20
161.1578545834
 30
0.0
 11
159.6411463358
 21
163.0897623159
 31
0.0
  0
LINE
  5
382
330
1F
100
AcDbEntity
  8
0
  6
Continuous
 62
     7
370
    50
100
AcDbLine
 10
169.7833675119
 20
162.7365543735
 30
0.0
 11
169.7833675119
 21
164.658599387
 31
0.0
  0
ARC
  5
383
330
1F
100
AcDbEntity
  8
0
  6
Continuous
 62
     7
370
    50
100
AcDbCircle
 10
171.9431677646
 20
164.4307134829
 30
0.0
 40
2.171789381402227
100
AcDbArc
 50
96.0247979745
 51
173.9768652481
  0
LINE
  5
384
330
1F
100
AcDbEntity
  8
0
  6
Continuous
 62
     7
370
    50
100
AcDbLine
 10
171.7152191644
 20
166.5905071196
 30
0.0
 11
176.1361344142
 21
167.2743509849
 31
0.0
  0
ARC
  5
385
330
1F
100
AcDbEntity
  8
0
  6
Continuous
 62
     7
370
    50
100
AcDbCircle
 10
192.9942756959
 20
159.0927851102
 30
0.0
 40
1.005954471803333
100
AcDbArc
 50
54.3824225248
 51
114.3071190461
  0
LINE
  5
386
330
1F
100
AcDbEntity
  8
0
  6
Continuous
 62
     7
370
    50
100
AcDbLine
 10
147.7946181853
 20
155.8824728349
 30
0.0
 11
147.7946181853
 21
157.6649675131
 31
0.0
  0
LINE
  5
387
330
1F
100
AcDbEntity
  8
0
  6
Continuous
 62
     7
370
    50
100
AcDbLine
 10
151.428688599
 20
162.6665972985
 30
0.0
 11
149.4968369464
 21
162.9654234073
 31
0.0
  0
LINE
  5
388
330
1F
100
AcDbEntity
  8
0
  6
Continuous
 62
     7
370
    50
100
AcDbLine
 10
148.3122562755
 20
160.4132833575
 30
0.0
 11
149.4968369464
 21
162.9654234073
 31
0.0
  0
ARC
  5
389
330
1F
100
AcDbEntity
  8
0
  6
Continuous
 62
     7
370
    50
100
AcDbCircle
 10
153.4321688549
 20
161.3435940305
 30
0.0
 40
2.400889581605851
100
AcDbArc
 50
93.433502328
 51
146.5611211393
  0
ARC
  5
38A
330
1F
100
AcDbEntity
  8
0
  6
Continuous
 62
     7
370
    50
100
AcDbCircle
 10
153.0238763323
 20
160.6363340038
 30
0.0
 40
4.226661126552966
100
AcDbArc
 50
93.433502328
 51
146.5611211393
  0
LINE
  5
38B
330
1F
100
AcDbEntity
  8
0
  6
Continuous
 62
     7
370
    50
100
AcDbLine
 10
152.7707413433
 20
164.8554081862
 30
0.0
 11
153.2883794335
 21
163.7401739656
 31
0.0
  0
LINE
  5
38C
330
1F
100
AcDbEntity
  8
0
  6
Continuous
 62
     7
370
    50
100
AcDbLine
 10
157.7092946833
 20
164.4240178309
 30
0.0
 11
157.1916565931
 21
165.5392520515
 31
0.0
  0
LINE
  5
38D
330
1F
100
AcDbEntity
  8
0
  6
Continuous
 62
     7
370
    50
100
AcDbLine
 10
152.7707413433
 20
164.8554081862
 30
0.0
 11
157.1916565931
 21
165.5392520515
 31
0.0
  0
ARC
  5
38E
330
1F
100
AcDbEntity
  8
0
  6
Continuous
 62
     7
370
    50
100
AcDbCircle
 10
157.5955957567
 20
163.9899418707
 30
0.0
 40
1.601102396561362
100
AcDbArc
 50
28.2669909354
 51
104.6129546033
  0
LINE
  5
38F
330
1F
100
AcDbEntity
  8
0
  6
Continuous
 62
     7
370
    50
100
AcDbLine
 10
184.7412810408
 20
163.3800168436
 30
0.0
 11
183.3270674784
 21
162.5636087317
 31
0.0
  0
LINE
  5
390
330
1F
100
AcDbEntity
  8
0
  6
Continuous
 62
     7
370
    50
100
AcDbLine
 10
181.9128539161
 20
165.0130984673
 30
0.0
 11
183.3270674784
 21
165.8295065792
 31
0.0
  0
ARC
  5
391
330
1F
100
AcDbEntity
  8
0
  6
Continuous
 62
     7
370
    50
100
AcDbCircle
 10
181.6708488381
 20
163.2402951391
 30
0.0
 40
3.073609615144048
100
AcDbArc
 50
2.6054784857
 51
57.39452166
  0
LINE
  5
392
330
1F
100
AcDbEntity
  8
0
  6
Continuous
 62
     7
370
    50
100
AcDbLine
 10
184.7412810408
 20
161.5428331918
 30
0.0
 11
184.7412810408
 21
163.3800168436
 31
0.0
  0
LINE
  5
393
330
1F
100
AcDbEntity
  8
0
  6
Continuous
 62
     7
370
    50
100
AcDbLine
 10
180.0907328997
 20
167.6978027637
 30
0.0
 11
178.6765193373
 21
166.8813946519
 31
0.0
  0
LINE
  5
394
330
1F
100
AcDbEntity
  8
0
  6
Continuous
 62
     7
370
    50
100
AcDbLine
 10
180.0907328997
 20
167.6978027637
 30
0.0
 11
183.3270674784
 21
165.8295065792
 31
0.0
  0
LINE
  5
395
330
1F
100
AcDbEntity
  8
0
  6
Continuous
 62
     7
370
    50
100
AcDbLine
 10
176.1361344142
 20
167.2743509849
 30
0.0
 11
175.618496324
 21
168.3895852055
 31
0.0
  0
LINE
  5
396
330
1F
100
AcDbEntity
  8
0
  6
Continuous
 62
     7
370
    50
100
AcDbLine
 10
171.1975810742
 20
167.7057413402
 30
0.0
 11
171.7152191644
 21
166.5905071196
 31
0.0
  0
LINE
  5
397
330
1F
100
AcDbEntity
  8
0
  6
Continuous
 62
     7
370
    50
100
AcDbLine
 10
171.1975810742
 20
167.7057413402
 30
0.0
 11
175.618496324
 21
168.3895852055
 31
0.0
  0
LINE
  5
398
330
1F
100
AcDbEntity
  8
0
  6
Continuous
 62
     7
370
    50
100
AcDbLine
 10
169.7833675119
 20
164.658599387
 30
0.0
 11
169.2657294217
 21
165.7738336076
 31
0.0
  0
ARC
  5
399
330
1F
100
AcDbEntity
  8
0
  6
Continuous
 62
     7
370
    50
100
AcDbCircle
 10
171.4255296744
 20
165.5459477036
 30
0.0
 40
2.171789381402224
100
AcDbArc
 50
96.0247979745
 51
173.9768652481
  0
ARC
  5
39A
330
1F
100
AcDbEntity
  8
0
  6
Continuous
 62
     7
370
    50
100
AcDbCircle
 10
176.8212926909
 20
163.2957425972
 30
0.0
 40
4.037173090974192
100
AcDbArc
 50
62.642825155
 51
99.7710969793
  0
ARC
  5
39B
330
1F
100
AcDbEntity
  8
0
  6
Continuous
 62
     7
370
    50
100
AcDbCircle
 10
176.8246875107
 20
161.3854191086
 30
0.0
 40
7.107266696277477
100
AcDbArc
 50
62.642825155
 51
99.7710969793
  0
LINE
  5
39C
330
1F
100
AcDbEntity
  8
0
  6
Continuous
 62
     7
370
    50
100
AcDbLine
 10
169.2657294217
 20
163.5831348736
 30
0.0
 11
169.2657294217
 21
165.7738336076
 31
0.0
  0
LINE
  5
39D
330
1F
100
AcDbEntity
  8
0
  6
Continuous
 62
     7
370
    50
100
AcDbLine
 10
149.2236797705
 20
23.6611835321
 30
0.0
 11
150.6378933328
 21
24.4775916439
 31
0.0
  0
LINE
  5
39E
330
1F
100
AcDbEntity
  8
0
  6
Continuous
 62
     7
370
    50
100
AcDbLine
 10
150.6378933328
 20
24.4778570441
 30
0.0
 11
150.6378933328
 21
24.4775916439
 31
0.0
  0
ARC
  5
39F
330
1F
100
AcDbEntity
  8
0
  6
Continuous
 62
     7
370
    50
100
AcDbCircle
 10
149.6865222209
 20
24.3564635868
 30
0.0
 40
0.9590510929085889
100
AcDbArc
 50
304.0563508344
 51
7.2558295589
  0
ARC
  5
3A0
330
1F
100
AcDbEntity
  8
0
  6
Continuous
 62
     7
370
    50
100
AcDbCircle
 10
195.3722184479
 20
29.9555885688
 30
0.0
 40
2.536064385214295
100
AcDbArc
 50
167.8994141941
 51
219.7458641494
  0
LINE
  5
3A1
330
1F
100
AcDbEntity
  8
0
  6
Continuous
 62
     8
370
    50
100
AcDbLine
 10
177.9744848217
 20
36.815522593
 30
0.0
 11
177.9744848217
 21
37.0385694371
 31
0.0
  0
LINE
  5
3A2
330
1F
100
AcDbEntity
  8
0
  6
Continuous
 62
     8
370
    50
100
AcDbLine
 10
190.3627799512
 20
43.124801466
 30
0.0
 11
190.3627799512
 21
42.9615198436
 31
0.0
  0
LINE
  5
3A3
330
1F
100
AcDbEntity
  8
0
  6
Continuous
 62
     8
370
    50
100
AcDbLine
 10
177.0562624718
 20
136.6688583193
 30
0.0
 11
177.0562624718
 21
136.8201954227
 31
0.0
  0
LINE
  5
3A4
330
1F
100
AcDbEntity
  8
0
  6
Continuous
 62
     8
370
    50
100
AcDbLine
 10
151.0268020625
 20
142.0798787583
 30
0.0
 11
151.0268020625
 21
142.2431603807
 31
0.0
  0
LINE
  5
3A5
330
1F
100
AcDbEntity
  8
0
  6
Continuous
 62
     8
370
    50
100
AcDbLine
 10
147.3633523734
 20
149.5265667954
 30
0.0
 11
147.3633523734
 21
149.9726604836
 31
0.0
  0
LINE
  5
3A6
330
1F
100
AcDbEntity
  8
0
  6
Continuous
 62
     8
370
    50
100
AcDbLine
 10
190.3627799512
 20
156.6239743181
 30
0.0
 11
190.3627799512
 21
156.4606926957
 31
0.0
  0
LINE
  5
3A7
330
1F
100
AcDbEntity
  8
0
  6
Continuous
 62
     8
370
    50
100
AcDbLine
 10
159.9602735059
 20
161.2669836009
 30
0.0
 11
159.9602735059
 21
161.3267488227
 31
0.0
  0
LINE
  5
3A8
330
1F
100
AcDbEntity
  8
0
  6
Continuous
 62
     8
370
    50
100
AcDbLine
 10
145.3066511031
 20
149.4768690995
 30
0.0
 11
145.3066511031
 21
148.6909564334
 31
0.0
  0
LINE
  5
3A9
330
1F
100
AcDbEntity
  8
0
  6
Continuous
 62
     8
370
    50
100
AcDbLine
 10
151.428688599
 20
162.6665972985
 30
0.0
 11
151.428688599
 21
158.2851998304
 31
0.0
  0
LINE
  5
3AA
330
1F
100
AcDbEntity
  8
0
  6
Continuous
 62
     8
370
    50
100
AcDbLine
 10
195.402236822
 20
157.2258434721
 30
0.0
 11
195.402236822
 21
154.2927774719
 31
0.0
  0
LINE
  5
3AB
330
1F
100
AcDbEntity
  8
0
  6
Continuous
 62
     8
370
    50
100
AcDbLine
 10
178.6765193373
 20
166.8813946519
 30
0.0
 11
178.6765193373
 21
163.2070266324
 31
0.0
  0
LINE
  5
3AC
330
1F
100
AcDbEntity
  8
0
  6
Continuous
 62
     8
370
    50
100
AcDbLine
 10
178.6765193373
 20
134.9777935245
 30
0.0
 11
178.6765193373
 21
49.7078537803
 31
0.0
  0
LINE
  5
3AD
330
1F
100
AcDbEntity
  8
0
  6
Continuous
 62
     8
370
    50
100
AcDbLine
 10
153.2883794335
 20
163.7401739656
 30
0.0
 11
153.2883794335
 21
160.1318338615
 31
0.0
  0
LINE
  5
3AE
330
1F
100
AcDbEntity
  8
0
  6
Continuous
 62
     8
370
    50
100
AcDbLine
 10
176.1361344142
 20
167.2743509849
 30
0.0
 11
176.1361344142
 21
163.6962292101
 31
0.0
  0
LINE
  5
3AF
330
1F
100
AcDbEntity
  8
0
  6
Continuous
 62
     7
370
    50
100
AcDbLine
 10
254.2695169984
 20
34.0702265715
 30
0.0
 11
254.2695169984
 21
35.7033081953
 31
0.0
  0
LINE
  5
3B0
330
1F
100
AcDbEntity
  8
0
  6
Continuous
 62
     7
370
    50
100
AcDbLine
 10
235.2695169984
 20
35.7033081953
 30
0.0
 11
235.2695169984
 21
34.0702265715
 31
0.0
  0
LINE
  5
3B1
330
1F
100
AcDbEntity
  8
0
  6
Continuous
 62
     7
370
    50
100
AcDbLine
 10
238.0807344435
 20
49.0915573796
 30
0.0
 11
238.5983725338
 21
47.976323159
 31
0.0
  0
LINE
  5
3B2
330
1F
100
AcDbEntity
  8
0
  6
Continuous
 62
     7
370
    50
100
AcDbLine
 10
256.9874986402
 20
44.7331375283
 30
0.0
 11
258.4017122026
 21
45.5495456402
 31
0.0
  0
LINE
  5
3B3
330
1F
100
AcDbEntity
  8
0
  6
Continuous
 62
     7
370
    50
100
AcDbLine
 10
272.247271979
 20
35.971321967
 30
0.0
 11
272.247271979
 21
158.4524437499
 31
0.0
  0
LINE
  5
3B4
330
1F
100
AcDbEntity
  8
0
  6
Continuous
 62
     7
370
    50
100
AcDbLine
 10
268.6673446876
 20
32.682813286
 30
0.0
 11
270.5991963402
 21
32.3839871773
 31
0.0
  0
LINE
  5
3B5
330
1F
100
AcDbEntity
  8
0
  6
Continuous
 62
     7
370
    50
100
AcDbLine
 10
217.2917620177
 20
151.3840897113
 30
0.0
 11
217.2917620177
 21
28.9029679284
 31
0.0
  0
LINE
  5
3B6
330
1F
100
AcDbEntity
  8
0
  6
Continuous
 62
     7
370
    50
100
AcDbLine
 10
222.8841109322
 20
25.045670864
 30
0.0
 11
224.2983244946
 21
25.8620789758
 31
0.0
  0
LINE
  5
3B7
330
1F
100
AcDbEntity
  8
0
  6
Continuous
 62
     7
370
    50
100
AcDbLine
 10
255.940902682
 20
21.4222756133
 30
0.0
 11
256.4585407722
 21
20.3070413927
 31
0.0
  0
LINE
  5
3B8
330
1F
100
AcDbEntity
  8
0
  6
Continuous
 62
     7
370
    50
100
AcDbLine
 10
266.6549230645
 20
162.3097408143
 30
0.0
 11
265.2407095021
 21
161.4933327025
 31
0.0
  0
LINE
  5
3B9
330
1F
100
AcDbEntity
  8
0
  6
Continuous
 62
     7
370
    50
100
AcDbLine
 10
222.0420389985
 20
156.7211638928
 30
0.0
 11
220.110187346
 21
157.0199900015
 31
0.0
  0
LWPOLYLINE
  5
3BA
330
1F
100
AcDbEntity
  8
0
  6
Continuous
 62
     7
370
    50
100
AcDbPolyline
 90
       41
 70
   128
 43
0.0
 10
251.4870314196
 20
37.9481651026
 10
250.3534768951
 20
38.5070644838
 10
249.0824267459
 20
38.9567141906
 10
247.7051784449
 20
39.2860423549
 10
246.2556444162
 20
39.4869398242
 10
244.7695169984
 20
39.5544598363
 10
243.2833895805
 20
39.4869398242
 10
241.8338555518
 20
39.2860423549
 10
240.4566072508
 20
38.9567141906
 10
239.1855571016
 20
38.5070644838
 10
238.0520025771
 20
37.9481651026
 10
237.0838555518
 20
37.2937780047
 10
236.3049550186
 20
36.5600163721
 10
235.7344800936
 20
35.7649478514
 10
235.3864777627
 20
34.9281496684
 10
235.2695169984
 20
34.0702265715
 10
235.3864777627
 20
33.2123034746
 10
235.7344800936
 20
32.3755052915
 10
236.3049550186
 20
31.5804367709
 10
237.0838555518
 20
30.8466751383
 10
238.0520025771
 20
30.1922880403
 10
239.1855571016
 20
29.6333886591
 10
240.4566072508
 20
29.1837389524
 10
241.8338555518
 20
28.8544107881
 10
243.2833895805
 20
28.6535133187
 10
244.7695169984
 20
28.5859933067
 10
246.2556444162
 20
28.6535133187
 10
247.7051784449
 20
28.8544107881
 10
249.0824267459
 20
29.1837389524
 10
250.3534768951
 20
29.6333886591
 10
251.4870314196
 20
30.1922880403
 10
252.4551784449
 20
30.8466751383
 10
253.2340789782
 20
31.5804367709
 10
253.8045539032
 20
32.3755052915
 10
254.152556234
 20
33.2123034746
 10
254.2695169984
 20
34.0702265715
 10
254.152556234
 20
34.9281496684
 10
253.8045539032
 20
35.7649478514
 10
253.2340789782
 20
36.5600163721
 10
252.4551784449
 20
37.2937780047
 10
251.4870314196
 20
37.9481651026
  0
LWPOLYLINE
  5
3BB
330
1F
100
AcDbEntity
  8
0
  6
Continuous
 62
     7
370
    50
100
AcDbPolyline
 90
       32
 70
   128
 43
0.0
 10
248.8353809902
 20
36.417399893
 10
247.933700111
 20
36.8418356332
 10
246.9024772034
 20
37.1528013728
 10
245.7839306543
 20
37.3375661378
 10
244.6238538911
 20
37.3885656371
 10
243.4697405925
 20
37.3037119452
 10
242.3688402927
 20
37.0864789821
 10
241.3662239793
 20
36.745760291
 10
240.502938882
 20
36.295504935
 10
239.8143279941
 20
35.7541464214
 10
239.3285831262
 20
35.1438480312
 10
239.0655907303
 20
34.4895954524
 10
239.036117746
 20
33.8181738622
 10
239.2413708008
 20
33.1570713397
 10
239.6729468104
 20
32.5333534996
 10
240.3131770023
 20
31.9725554236
 10
241.1358502773
 20
31.4976362509
 10
242.1072862948
 20
31.1280392282
 10
243.18771435
 20
30.878895701
 10
244.3329015916
 20
30.7604056346
 10
245.4959639192
 20
30.7774200263
 10
246.6292854245
 20
30.9292423048
 10
247.6864677919
 20
31.2096568483
 10
248.6242298511
 20
31.6071834523
 10
249.4041795132
 20
32.105547331
 10
249.9943855474
 20
32.6843454086
 10
250.3706848493
 20
33.3198816239
 10
250.5176716813
 20
33.9861370495
 10
250.4293283852
 20
34.6558351101
 10
250.1092717459
 20
35.3015582882
 10
249.5706049199
 20
35.8968706012
 10
248.8353809902
 20
36.417399893
  0
LWPOLYLINE
  5
3BC
330
1F
100
AcDbEntity
  8
0
  6
Continuous
 62
     7
370
    50
100
AcDbPolyline
 90
       16
 70
   128
 43
0.0
 10
251.4870314196
 20
39.5812467264
 10
250.3534768951
 20
40.1401461076
 10
249.0824267459
 20
40.5897958144
 10
247.7051784449
 20
40.9191239786
 10
246.2556444162
 20
41.120021448
 10
244.7695169984
 20
41.1875414601
 10
243.2833895805
 20
41.120021448
 10
241.8338555518
 20
40.9191239786
 10
240.4566072508
 20
40.5897958144
 10
239.1855571016
 20
40.1401461076
 10
238.0520025771
 20
39.5812467264
 10
237.0838555518
 20
38.9268596284
 10
236.3049550186
 20
38.1930979958
 10
235.7344800936
 20
37.3980294752
 10
235.3864777627
 20
36.5612312922
 10
235.2695169984
 20
35.7033081953
  0
ARC
  5
3BD
330
1F
100
AcDbEntity
  8
0
  6
Continuous
 62
     7
370
    50
100
AcDbCircle
 10
249.4473323608
 20
35.1805194578
 30
0.0
 40
4.850440468979505
100
AcDbArc
 50
6.1874562376
 51
65.13268472
  0
LWPOLYLINE
  5
3BE
330
1F
100
AcDbEntity
  8
0
  6
Continuous
 62
     7
370
    50
100
AcDbPolyline
 90
        3
 70
   128
 43
0.0
 10
237.805680052
 20
136.8022648635
 10
237.7307490069
 20
137.1100010085
 10
237.5197090326
 20
138.381036604
  0
LINE
  5
3BF
330
1F
100
AcDbEntity
  8
0
  6
Continuous
 62
     7
370
    50
100
AcDbLine
 10
237.5197090326
 20
138.381036604
 30
0.0
 11
237.5197090326
 21
148.3041002182
 31
0.0
  0
ARC
  5
3C0
330
1F
100
AcDbEntity
  8
0
  6
Continuous
 62
     7
370
    50
100
AcDbCircle
 10
238.950088504
 20
44.3671011897
 30
0.0
 40
3.905733719844666
100
AcDbArc
 50
97.9773339547
 51
118.8888387806
  0
LINE
  5
3C1
330
1F
100
AcDbEntity
  8
0
  6
Continuous
 62
     7
370
    50
100
AcDbLine
 10
238.4735835226
 20
48.2451769744
 30
0.0
 11
238.4080455334
 21
48.2350393108
 31
0.0
  0
LINE
  5
3C2
330
1F
100
AcDbEntity
  8
0
  6
Continuous
 62
     7
370
    50
100
AcDbLine
 10
258.9927837276
 20
47.9962658629
 30
0.0
 11
258.8160070323
 21
47.8942148489
 31
0.0
  0
LINE
  5
3C3
330
1F
100
AcDbEntity
  8
0
  6
Continuous
 62
     7
370
    50
100
AcDbLine
 10
266.0638515395
 20
43.9142253038
 30
0.0
 11
258.9927837276
 21
47.9962658629
 31
0.0
  0
LINE
  5
3C4
330
1F
100
AcDbEntity
  8
0
  6
Continuous
 62
     7
370
    50
100
AcDbLine
 10
264.4375059427
 20
42.9753559752
 30
0.0
 11
266.0638515395
 21
43.9142253038
 31
0.0
  0
ARC
  5
3C5
330
1F
100
AcDbEntity
  8
0
  6
Continuous
 62
     7
370
    50
100
AcDbCircle
 10
264.4684913481
 20
42.893715164
 30
0.0
 40
0.0873230633668799
100
AcDbArc
 50
110.7834207995
 51
249.2165792005
  0
LINE
  5
3C6
330
1F
100
AcDbEntity
  8
0
  6
Continuous
 62
     7
370
    50
100
AcDbLine
 10
264.8264146724
 20
42.5875621221
 30
0.0
 11
264.4375059427
 21
42.8120743528
 31
0.0
  0
LINE
  5
3C7
330
1F
100
AcDbEntity
  8
0
  6
Continuous
 62
     7
370
    50
100
AcDbLine
 10
267.9595342756
 20
35.2239802828
 30
0.0
 11
268.9467792567
 21
37.3509670866
 31
0.0
  0
LWPOLYLINE
  5
3C8
330
1F
100
AcDbEntity
  8
0
  6
Continuous
 62
     7
370
    50
100
AcDbPolyline
 90
        9
 70
   128
 43
0.0
 10
268.1009556318
 20
35.0825742498
 10
268.0642617028
 20
35.0905469493
 10
268.030967155
 20
35.102499045
 10
268.0023514793
 20
35.1179712245
 10
267.9795143601
 20
35.1363689007
 10
267.9633334149
 20
35.1569850612
 10
267.9544304686
 20
35.1790274385
 10
267.9531476562
 20
35.2016489565
 10
267.9595342756
 20
35.2239802828
  0
LINE
  5
3C9
330
1F
100
AcDbEntity
  8
0
  6
Continuous
 62
     7
370
    50
100
AcDbLine
 10
268.455438141
 20
35.0277415567
 30
0.0
 11
268.1009556318
 21
35.0825742498
 31
0.0
  0
LINE
  5
3CA
330
1F
100
AcDbEntity
  8
0
  6
Continuous
 62
     7
370
    50
100
AcDbLine
 10
267.7343945813
 20
29.1627531217
 30
0.0
 11
269.3212863222
 21
32.5816591245
 31
0.0
  0
LINE
  5
3CB
330
1F
100
AcDbEntity
  8
0
  6
Continuous
 62
     7
370
    50
100
AcDbLine
 10
265.5127651808
 20
29.5064031468
 30
0.0
 11
267.7343945813
 21
29.1627531217
 31
0.0
  0
ARC
  5
3CC
330
1F
100
AcDbEntity
  8
0
  6
Continuous
 62
     7
370
    50
100
AcDbCircle
 10
265.4532511898
 20
29.2766807848
 30
0.0
 40
0.2373062972689234
100
AcDbArc
 50
75.4757485669
 51
141.3904241684
  0
LINE
  5
3CD
330
1F
100
AcDbEntity
  8
0
  6
Continuous
 62
     7
370
    50
100
AcDbLine
 10
263.6826599365
 20
26.0095953479
 30
0.0
 11
265.2678162065
 21
29.4247623356
 31
0.0
  0
ARC
  5
3CE
330
1F
100
AcDbEntity
  8
0
  6
Continuous
 62
     7
370
    50
100
AcDbCircle
 10
261.3973212416
 20
27.518724551
 30
0.0
 40
2.738657317421033
100
AcDbArc
 50
273.433502328
 51
326.5611211393
  0
LINE
  5
3CF
330
1F
100
AcDbEntity
  8
0
  6
Continuous
 62
     7
370
    50
100
AcDbLine
 10
255.6454558555
 20
23.8698919437
 30
0.0
 11
261.561339593
 21
24.7849831801
 31
0.0
  0
LWPOLYLINE
  5
3D0
330
1F
100
AcDbEntity
  8
0
  6
Continuous
 62
     7
370
    50
100
AcDbPolyline
 90
        9
 70
   128
 43
0.0
 10
255.5040344993
 20
23.7284859108
 10
255.4976478799
 20
23.7508172371
 10
255.4989306923
 20
23.7734387551
 10
255.5078336387
 20
23.7954811324
 10
255.5240145838
 20
23.8160972929
 10
255.5468517031
 20
23.8344949691
 10
255.5754673787
 20
23.8499671486
 10
255.6087619265
 20
23.8619192443
 10
255.6454558555
 20
23.8698919437
  0
LINE
  5
3D1
330
1F
100
AcDbEntity
  8
0
  6
Continuous
 62
     7
370
    50
100
AcDbLine
 10
255.8231616694
 20
23.040936931
 30
0.0
 11
255.5040344993
 21
23.7284859108
 31
0.0
  0
LINE
  5
3D2
330
1F
100
AcDbEntity
  8
0
  6
Continuous
 62
     7
370
    50
100
AcDbLine
 10
246.4400600401
 20
20.9518360132
 30
0.0
 11
255.8231616694
 21
22.4032496062
 31
0.0
  0
LINE
  5
3D3
330
1F
100
AcDbEntity
  8
0
  6
Continuous
 62
     7
370
    50
100
AcDbLine
 10
245.8447762364
 20
22.2343553669
 30
0.0
 11
246.4400600401
 21
20.9518360132
 31
0.0
  0
ARC
  5
3D4
330
1F
100
AcDbEntity
  8
0
  6
Continuous
 62
     7
370
    50
100
AcDbCircle
 10
245.6593412531
 20
22.0862738161
 30
0.0
 40
0.2373062972689234
100
AcDbArc
 50
38.6095758316
 51
104.5242514331
  0
LINE
  5
3D5
330
1F
100
AcDbEntity
  8
0
  6
Continuous
 62
     7
370
    50
100
AcDbLine
 10
239.6839435247
 20
21.4009049417
 30
0.0
 11
245.5998272621
 21
22.3159961781
 31
0.0
  0
ARC
  5
3D6
330
1F
100
AcDbEntity
  8
0
  6
Continuous
 62
     7
370
    50
100
AcDbCircle
 10
238.9023941596
 20
25.9392415056
 30
0.0
 40
4.605140407956561
100
AcDbArc
 50
242.642825155
 51
279.7710969793
  0
LINE
  5
3D7
330
1F
100
AcDbEntity
  8
0
  6
Continuous
 62
     7
370
    50
100
AcDbLine
 10
232.4554385783
 20
24.3492198562
 30
0.0
 11
236.7861660458
 21
21.8491441049
 31
0.0
  0
ARC
  5
3D8
330
1F
100
AcDbEntity
  8
0
  6
Continuous
 62
     7
370
    50
100
AcDbCircle
 10
232.3140172221
 20
24.0762776392
 30
0.0
 40
0.3074043815822328
100
AcDbArc
 50
62.6096722366
 51
117.3903277634
  0
LINE
  5
3D9
330
1F
100
AcDbEntity
  8
0
  6
Continuous
 62
     7
370
    50
100
AcDbLine
 10
230.5462502691
 20
23.4103505276
 30
0.0
 11
232.1725958658
 21
24.3492198562
 31
0.0
  0
LINE
  5
3DA
330
1F
100
AcDbEntity
  8
0
  6
Continuous
 62
     7
370
    50
100
AcDbLine
 10
224.7126193243
 20
26.7780339889
 30
0.0
 11
230.5462502691
 21
23.4103505276
 31
0.0
  0
LINE
  5
3DB
330
1F
100
AcDbEntity
  8
0
  6
Continuous
 62
     7
370
    50
100
AcDbLine
 10
225.101528054
 20
28.4312604153
 30
0.0
 11
224.7126193243
 21
28.2067481846
 31
0.0
  0
ARC
  5
3DC
330
1F
100
AcDbEntity
  8
0
  6
Continuous
 62
     7
370
    50
100
AcDbCircle
 10
225.0705426486
 20
28.5129012265
 30
0.0
 40
0.0873230633668631
100
AcDbArc
 50
290.7834207995
 51
69.2165792005
  0
LINE
  5
3DD
330
1F
100
AcDbEntity
  8
0
  6
Continuous
 62
     7
370
    50
100
AcDbLine
 10
220.7708005865
 20
31.0946177891
 30
0.0
 11
225.101528054
 21
28.5945420377
 31
0.0
  0
LWPOLYLINE
  5
3DE
330
1F
100
AcDbEntity
  8
0
  6
Continuous
 62
     7
370
    50
100
AcDbPolyline
 90
        3
 70
   128
 43
0.0
 10
220.355476594
 20
31.3945895579
 10
220.5120609092
 20
31.2649384791
 10
220.7708005865
 20
31.0946177891
  0
LINE
  5
3DF
330
1F
100
AcDbEntity
  8
0
  6
Continuous
 62
     7
370
    50
100
AcDbLine
 10
223.0615698982
 20
39.3757075028
 30
0.0
 11
222.4177771641
 21
37.9886772559
 31
0.0
  0
ARC
  5
3E0
330
1F
100
AcDbEntity
  8
0
  6
Continuous
 62
     7
370
    50
100
AcDbCircle
 10
224.6921507462
 20
38.5214070987
 30
0.0
 40
1.840821306394859
100
AcDbArc
 50
117.6449125053
 51
152.3488790413
  0
LINE
  5
3E1
330
1F
100
AcDbEntity
  8
0
  6
Continuous
 62
     7
370
    50
100
AcDbLine
 10
237.0631823251
 20
47.7868001476
 30
0.0
 11
223.8380270335
 21
40.1520805073
 31
0.0
  0
LINE
  5
3E2
330
1F
100
AcDbEntity
  8
0
  6
Continuous
 62
     7
370
    50
100
AcDbLine
 10
237.0631823251
 20
47.7868001476
 30
0.0
 11
237.0631823251
 21
50.2364225833
 31
0.0
  0
ARC
  5
3E3
330
1F
100
AcDbEntity
  8
0
  6
Continuous
 62
     7
370
    50
100
AcDbCircle
 10
238.786611483
 20
47.1892616018
 30
0.0
 40
3.500771073477162
100
AcDbArc
 50
106.60170782
 51
119.4918580243
  0
LINE
  5
3E4
330
1F
100
AcDbEntity
  8
0
  6
Continuous
 62
     7
370
    50
100
AcDbLine
 10
258.9927837276
 20
50.4458882985
 30
0.0
 11
258.9927837276
 21
47.9962658629
 31
0.0
  0
LINE
  5
3E5
330
1F
100
AcDbEntity
  8
0
  6
Continuous
 62
     7
370
    50
100
AcDbLine
 10
266.0638515395
 20
46.3638477394
 30
0.0
 11
266.0638515395
 21
43.9142253038
 31
0.0
  0
LINE
  5
3E6
330
1F
100
AcDbEntity
  8
0
  6
Continuous
 62
     7
370
    50
100
AcDbLine
 10
266.0638515395
 20
46.3638477394
 30
0.0
 11
258.9927837276
 21
50.4458882985
 31
0.0
  0
LINE
  5
3E7
330
1F
100
AcDbEntity
  8
0
  6
Continuous
 62
     7
370
    50
100
AcDbLine
 10
258.9927837276
 20
50.4458882985
 30
0.0
 11
258.8160070323
 21
50.3438372846
 31
0.0
  0
LINE
  5
3E8
330
1F
100
AcDbEntity
  8
0
  6
Continuous
 62
     7
370
    50
100
AcDbLine
 10
223.8380270335
 20
42.601702943
 30
0.0
 11
223.8380270335
 21
40.1520805073
 31
0.0
  0
LINE
  5
3E9
330
1F
100
AcDbEntity
  8
0
  6
Continuous
 62
     7
370
    50
100
AcDbLine
 10
237.0631823251
 20
50.2364225833
 30
0.0
 11
223.8380270335
 21
42.601702943
 31
0.0
  0
LINE
  5
3EA
330
1F
100
AcDbEntity
  8
0
  6
Continuous
 62
     7
370
    50
100
AcDbLine
 10
223.0615698982
 20
39.3757075028
 30
0.0
 11
223.0615698982
 21
41.8253299384
 31
0.0
  0
ARC
  5
3EB
330
1F
100
AcDbEntity
  8
0
  6
Continuous
 62
     7
370
    50
100
AcDbCircle
 10
224.6921507462
 20
40.9710295344
 30
0.0
 40
1.840821306395003
100
AcDbArc
 50
117.6449125053
 51
152.3488790413
  0
LINE
  5
3EC
330
1F
100
AcDbEntity
  8
0
  6
Continuous
 62
     7
370
    50
100
AcDbLine
 10
223.0615698982
 20
41.8253299384
 30
0.0
 11
222.5718053651
 21
40.7701483787
 31
0.0
  0
LINE
  5
3ED
330
1F
100
AcDbEntity
  8
0
  6
Continuous
 62
     7
370
    50
100
AcDbLine
 10
258.9927837276
 20
161.495438715
 30
0.0
 11
266.0638515395
 21
157.4133981559
 31
0.0
  0
ARC
  5
3EE
330
1F
100
AcDbEntity
  8
0
  6
Continuous
 62
     7
370
    50
100
AcDbCircle
 10
238.6119776118
 20
138.6306450664
 30
0.0
 40
3.755964016358633
100
AcDbArc
 50
240.9147795677
 51
257.3021693821
  0
LINE
  5
3EF
330
1F
100
AcDbEntity
  8
0
  6
Continuous
 62
     7
370
    50
100
AcDbLine
 10
236.7861660458
 20
135.348316957
 30
0.0
 11
232.4554385783
 21
137.8483927084
 31
0.0
  0
ARC
  5
3F0
330
1F
100
AcDbEntity
  8
0
  6
Continuous
 62
     7
370
    50
100
AcDbCircle
 10
232.3140172221
 20
137.5754504914
 30
0.0
 40
0.3074043815820561
100
AcDbArc
 50
62.6096722366
 51
117.3903277634
  0
LINE
  5
3F1
330
1F
100
AcDbEntity
  8
0
  6
Continuous
 62
     7
370
    50
100
AcDbLine
 10
232.1725958658
 20
137.8483927084
 30
0.0
 11
231.9604638315
 21
137.7259314916
 31
0.0
  0
LINE
  5
3F2
330
1F
100
AcDbEntity
  8
0
  6
Continuous
 62
     7
370
    50
100
AcDbLine
 10
224.8893960196
 20
141.8079720507
 30
0.0
 11
225.101528054
 21
141.9304332675
 31
0.0
  0
ARC
  5
3F3
330
1F
100
AcDbEntity
  8
0
  6
Continuous
 62
     7
370
    50
100
AcDbCircle
 10
225.0705426486
 20
142.0120740786
 30
0.0
 40
0.0873230633668464
100
AcDbArc
 50
290.7834207995
 51
69.2165792005
  0
LINE
  5
3F4
330
1F
100
AcDbEntity
  8
0
  6
Continuous
 62
     7
370
    50
100
AcDbLine
 10
225.101528054
 20
142.0937148898
 30
0.0
 11
222.5718053651
 21
143.5540927131
 31
0.0
  0
LINE
  5
3F5
330
1F
100
AcDbEntity
  8
0
  6
Continuous
 62
     7
370
    50
100
AcDbLine
 10
222.5718053651
 20
151.8196987952
 30
0.0
 11
223.0615698982
 21
152.8748803549
 31
0.0
  0
ARC
  5
3F6
330
1F
100
AcDbEntity
  8
0
  6
Continuous
 62
     7
370
    50
100
AcDbCircle
 10
224.6921507462
 20
152.0205799508
 30
0.0
 40
1.84082130639523
100
AcDbArc
 50
117.6449125053
 51
152.3488790413
  0
LINE
  5
3F7
330
1F
100
AcDbEntity
  8
0
  6
Continuous
 62
     7
370
    50
100
AcDbLine
 10
223.8380270335
 20
153.6512533595
 30
0.0
 11
237.0631823251
 21
161.2859729997
 31
0.0
  0
ARC
  5
3F8
330
1F
100
AcDbEntity
  8
0
  6
Continuous
 62
     7
370
    50
100
AcDbCircle
 10
238.7743019043
 20
158.2677458606
 30
0.0
 40
3.469528105911137
100
AcDbArc
 50
106.5434207681
 51
119.5501450763
  0
LINE
  5
3F9
330
1F
100
AcDbEntity
  8
0
  6
Continuous
 62
     7
370
    50
100
AcDbLine
 10
237.4380593745
 20
148.1281887184
 30
0.0
 11
237.786381912
 21
148.8786381559
 31
0.0
  0
ARC
  5
3FA
330
1F
100
AcDbEntity
  8
0
  6
Continuous
 62
     7
370
    50
100
AcDbCircle
 10
237.5209639122
 20
148.0988941713
 30
0.0
 40
0.0879279981205942
100
AcDbArc
 50
160.5389980878
 51
249.2579248011
  0
LINE
  5
3FB
330
1F
100
AcDbEntity
  8
0
  6
Continuous
 62
     7
370
    50
100
AcDbLine
 10
237.5197090326
 20
147.9994125629
 30
0.0
 11
237.4898231836
 21
148.0166652964
 31
0.0
  0
LINE
  5
3FC
330
1F
100
AcDbEntity
  8
0
  6
Continuous
 62
     7
370
    50
100
AcDbLine
 10
237.0631823251
 20
161.2859729997
 30
0.0
 11
237.0631823251
 21
163.7355954354
 31
0.0
  0
ARC
  5
3FD
330
1F
100
AcDbEntity
  8
0
  6
Continuous
 62
     7
370
    50
100
AcDbCircle
 10
238.786611483
 20
160.688434454
 30
0.0
 40
3.50077107347912
100
AcDbArc
 50
106.60170782
 51
119.4918580243
  0
LINE
  5
3FE
330
1F
100
AcDbEntity
  8
0
  6
Continuous
 62
     7
370
    50
100
AcDbLine
 10
258.9927837276
 20
161.495438715
 30
0.0
 11
258.9927837276
 21
163.9450611507
 31
0.0
  0
LINE
  5
3FF
330
1F
100
AcDbEntity
  8
0
  6
Continuous
 62
     7
370
    50
100
AcDbLine
 10
258.8160070323
 20
163.8430101367
 30
0.0
 11
258.9927837276
 21
163.9450611507
 31
0.0
  0
LINE
  5
400
330
1F
100
AcDbEntity
  8
0
  6
Continuous
 62
     7
370
    50
100
AcDbLine
 10
266.0638515395
 20
157.4133981559
 30
0.0
 11
266.0638515395
 21
159.8630205915
 31
0.0
  0
LINE
  5
401
330
1F
100
AcDbEntity
  8
0
  6
Continuous
 62
     7
370
    50
100
AcDbLine
 10
258.9927837276
 20
163.9450611507
 30
0.0
 11
266.0638515395
 21
159.8630205915
 31
0.0
  0
LINE
  5
402
330
1F
100
AcDbEntity
  8
0
  6
Continuous
 62
     7
370
    50
100
AcDbLine
 10
223.8380270335
 20
156.1008757951
 30
0.0
 11
223.8380270335
 21
153.6512533595
 31
0.0
  0
LINE
  5
403
330
1F
100
AcDbEntity
  8
0
  6
Continuous
 62
     7
370
    50
100
AcDbLine
 10
223.8380270335
 20
156.1008757951
 30
0.0
 11
237.0631823251
 21
163.7355954354
 31
0.0
  0
LINE
  5
404
330
1F
100
AcDbEntity
  8
0
  6
Continuous
 62
     7
370
    50
100
AcDbLine
 10
223.0615698982
 20
152.8748803549
 30
0.0
 11
223.0615698982
 21
155.3245027906
 31
0.0
  0
ARC
  5
405
330
1F
100
AcDbEntity
  8
0
  6
Continuous
 62
     7
370
    50
100
AcDbCircle
 10
224.6921507462
 20
154.4702023865
 30
0.0
 40
1.840821306395192
100
AcDbArc
 50
117.6449125053
 51
152.3488790413
  0
LINE
  5
406
330
1F
100
AcDbEntity
  8
0
  6
Continuous
 62
     7
370
    50
100
AcDbLine
 10
222.5718053651
 20
154.2693212308
 30
0.0
 11
223.0615698982
 21
155.3245027906
 31
0.0
  0
LINE
  5
407
330
1F
100
AcDbEntity
  8
0
  6
Continuous
 62
     7
370
    50
100
AcDbLine
 10
249.6932223155
 20
170.6897621503
 30
0.0
 11
249.6932223155
 21
48.2086403675
 31
0.0
  0
LINE
  5
408
330
1F
100
AcDbEntity
  8
0
  6
Continuous
 62
     7
370
    50
100
AcDbLine
 10
249.6932223155
 20
48.2086403675
 30
0.0
 11
242.6160110434
 21
47.1139106026
 31
0.0
  0
ARC
  5
409
330
1F
100
AcDbEntity
  8
0
  6
Continuous
 62
     7
370
    50
100
AcDbCircle
 10
241.5698832739
 20
50.7634342646
 30
0.0
 40
3.796499212382343
100
AcDbArc
 50
184.7424823785
 51
285.9948311059
  0
LINE
  5
40A
330
1F
100
AcDbEntity
  8
0
  6
Continuous
 62
     7
370
    50
100
AcDbLine
 10
237.786381912
 20
164.7652630541
 30
0.0
 11
237.786381912
 21
50.4495493901
 31
0.0
  0
ARC
  5
40B
330
1F
100
AcDbEntity
  8
0
  6
Continuous
 62
     7
370
    50
100
AcDbCircle
 10
243.1858825439
 20
164.1955482939
 30
0.0
 40
5.429473453505383
100
AcDbArc
 50
96.0247979745
 51
173.9768652481
  0
LINE
  5
40C
330
1F
100
AcDbEntity
  8
0
  6
Continuous
 62
     7
370
    50
100
AcDbLine
 10
249.6932223155
 20
170.6897621503
 30
0.0
 11
242.6160110434
 21
169.5950323854
 31
0.0
  0
LINE
  5
40D
330
1F
100
AcDbEntity
  8
0
  6
Continuous
 62
     7
370
    50
100
AcDbLine
 10
250.2108604057
 20
47.0934061469
 30
0.0
 11
249.6932223155
 21
48.2086403675
 31
0.0
  0
LINE
  5
40E
330
1F
100
AcDbEntity
  8
0
  6
Continuous
 62
     7
370
    50
100
AcDbLine
 10
250.2108604057
 20
47.0934061469
 30
0.0
 11
243.1336491337
 21
45.998676382
 31
0.0
  0
LINE
  5
40F
330
1F
100
AcDbEntity
  8
0
  6
Continuous
 62
     7
370
    50
100
AcDbLine
 10
242.6160110434
 20
47.1139106026
 30
0.0
 11
243.1336491337
 21
45.998676382
 31
0.0
  0
ARC
  5
410
330
1F
100
AcDbEntity
  8
0
  6
Continuous
 62
     7
370
    50
100
AcDbCircle
 10
250.8994135022
 20
163.6855960534
 30
0.0
 40
7.107266696277412
100
AcDbArc
 50
62.642825155
 51
99.7710969793
  0
LINE
  5
411
330
1F
100
AcDbEntity
  8
0
  6
Continuous
 62
     7
370
    50
100
AcDbLine
 10
254.1654588912
 20
169.9979797085
 30
0.0
 11
254.1654588912
 21
47.5168579257
 31
0.0
  0
ARC
  5
412
330
1F
100
AcDbEntity
  8
0
  6
Continuous
 62
     7
370
    50
100
AcDbCircle
 10
250.8994135022
 20
41.2044742706
 30
0.0
 40
7.10726669627741
100
AcDbArc
 50
62.642825155
 51
99.7710969793
  0
ARC
  5
413
330
1F
100
AcDbEntity
  8
0
  6
Continuous
 62
     7
370
    50
100
AcDbCircle
 10
250.8960186824
 20
43.1147977592
 30
0.0
 40
4.037173090973751
100
AcDbArc
 50
62.642825155
 51
99.7710969793
  0
LINE
  5
414
330
1F
100
AcDbEntity
  8
0
  6
Continuous
 62
     7
370
    50
100
AcDbLine
 10
254.1654588912
 20
47.5168579257
 30
0.0
 11
252.7512453288
 21
46.7004498138
 31
0.0
  0
ARC
  5
415
330
1F
100
AcDbEntity
  8
0
  6
Continuous
 62
     7
370
    50
100
AcDbCircle
 10
242.1238012244
 20
49.871951834
 30
0.0
 40
4.002755991404376
100
AcDbArc
 50
208.2669909354
 51
284.6129546033
  0
LINE
  5
416
330
1F
100
AcDbEntity
  8
0
  6
Continuous
 62
     7
370
    50
100
AcDbLine
 10
257.4017934699
 20
168.129683524
 30
0.0
 11
254.1654588912
 21
169.9979797085
 31
0.0
  0
ARC
  5
417
330
1F
100
AcDbEntity
  8
0
  6
Continuous
 62
     7
370
    50
100
AcDbCircle
 10
255.7455748296
 20
165.5404720839
 30
0.0
 40
3.073609615144548
100
AcDbArc
 50
2.6054784857
 51
57.39452166
  0
LINE
  5
418
330
1F
100
AcDbEntity
  8
0
  6
Continuous
 62
     7
370
    50
100
AcDbLine
 10
258.8160070323
 20
161.597489729
 30
0.0
 11
258.8160070323
 21
165.6801937884
 31
0.0
  0
LINE
  5
419
330
1F
100
AcDbEntity
  8
0
  6
Continuous
 62
     7
370
    50
100
AcDbLine
 10
258.8160070323
 20
161.597489729
 30
0.0
 11
266.2406282348
 21
157.3113471419
 31
0.0
  0
LINE
  5
41A
330
1F
100
AcDbEntity
  8
0
  6
Continuous
 62
     7
370
    50
100
AcDbLine
 10
266.2406282348
 20
157.3113471419
 30
0.0
 11
266.2406282348
 21
161.3940512013
 31
0.0
  0
ARC
  5
41B
330
1F
100
AcDbEntity
  8
0
  6
Continuous
 62
     7
370
    50
100
AcDbCircle
 10
267.1027769696
 20
161.5339055951
 30
0.0
 40
0.8734183948569962
100
AcDbArc
 50
50.7967147643
 51
189.2140369905
  0
LINE
  5
41C
330
1F
100
AcDbEntity
  8
0
  6
Continuous
 62
     7
370
    50
100
AcDbLine
 10
270.8911763759
 20
160.3424285288
 30
0.0
 11
267.6548417971
 21
162.2107247133
 31
0.0
  0
LINE
  5
41D
330
1F
100
AcDbEntity
  8
0
  6
Continuous
 62
     7
370
    50
100
AcDbLine
 10
270.8911763759
 20
160.3424285288
 30
0.0
 11
270.8911763759
 21
37.8613067459
 31
0.0
  0
LINE
  5
41E
330
1F
100
AcDbEntity
  8
0
  6
Continuous
 62
     7
370
    50
100
AcDbLine
 10
270.8911763759
 20
37.8613067459
 30
0.0
 11
267.6548417971
 21
39.7296029304
 31
0.0
  0
ARC
  5
41F
330
1F
100
AcDbEntity
  8
0
  6
Continuous
 62
     7
370
    50
100
AcDbCircle
 10
269.3110604375
 20
42.3188143705
 30
0.0
 40
3.073609615143994
100
AcDbArc
 50
182.6054784857
 51
237.39452166
  0
LINE
  5
420
330
1F
100
AcDbEntity
  8
0
  6
Continuous
 62
     7
370
    50
100
AcDbLine
 10
266.2406282348
 20
46.2617967254
 30
0.0
 11
266.2406282348
 21
42.179092666
 31
0.0
  0
LINE
  5
421
330
1F
100
AcDbEntity
  8
0
  6
Continuous
 62
     7
370
    50
100
AcDbLine
 10
258.8160070323
 20
50.5479393125
 30
0.0
 11
266.2406282348
 21
46.2617967254
 31
0.0
  0
LINE
  5
422
330
1F
100
AcDbEntity
  8
0
  6
Continuous
 62
     7
370
    50
100
AcDbLine
 10
258.8160070323
 20
50.5479393125
 30
0.0
 11
258.8160070323
 21
46.4652352531
 31
0.0
  0
ARC
  5
423
330
1F
100
AcDbEntity
  8
0
  6
Continuous
 62
     7
370
    50
100
AcDbCircle
 10
257.9538582975
 20
46.3253808593
 30
0.0
 40
0.8734183948570093
100
AcDbArc
 50
230.7967147643
 51
9.2140369905
  0
LINE
  5
424
330
1F
100
AcDbEntity
  8
0
  6
Continuous
 62
     7
370
    50
100
AcDbLine
 10
257.4017934699
 20
45.6485617411
 30
0.0
 11
254.1654588912
 21
47.5168579257
 31
0.0
  0
LINE
  5
425
330
1F
100
AcDbEntity
  8
0
  6
Continuous
 62
     7
370
    50
100
AcDbLine
 10
255.9875799076
 20
44.8321536293
 30
0.0
 11
257.4017934699
 21
45.6485617411
 31
0.0
  0
LINE
  5
426
330
1F
100
AcDbEntity
  8
0
  6
Continuous
 62
     7
370
    50
100
AcDbLine
 10
255.9875799076
 20
44.8321536293
 30
0.0
 11
252.7512453288
 21
46.7004498138
 31
0.0
  0
ARC
  5
427
330
1F
100
AcDbEntity
  8
0
  6
Continuous
 62
     7
370
    50
100
AcDbCircle
 10
256.5734200173
 20
45.6499162876
 30
0.0
 40
1.005954471803641
100
AcDbArc
 50
234.3824225248
 51
294.3071190461
  0
LINE
  5
428
330
1F
100
AcDbEntity
  8
0
  6
Continuous
 62
     7
370
    50
100
AcDbLine
 10
266.2406282348
 20
46.2617967254
 30
0.0
 11
266.0638515395
 21
46.1597457115
 31
0.0
  0
LINE
  5
429
330
1F
100
AcDbEntity
  8
0
  6
Continuous
 62
     7
370
    50
100
AcDbLine
 10
267.6548417971
 20
39.7296029304
 30
0.0
 11
266.2406282348
 21
38.9131948186
 31
0.0
  0
LINE
  5
42A
330
1F
100
AcDbEntity
  8
0
  6
Continuous
 62
     7
370
    50
100
AcDbLine
 10
264.8264146724
 20
41.3626845542
 30
0.0
 11
266.2406282348
 21
42.179092666
 31
0.0
  0
ARC
  5
42B
330
1F
100
AcDbEntity
  8
0
  6
Continuous
 62
     7
370
    50
100
AcDbCircle
 10
267.8968468751
 20
41.5024062587
 30
0.0
 40
3.073609615144112
100
AcDbArc
 50
182.6054784857
 51
237.39452166
  0
LINE
  5
42C
330
1F
100
AcDbEntity
  8
0
  6
Continuous
 62
     7
370
    50
100
AcDbLine
 10
264.8264146724
 20
43.1998682059
 30
0.0
 11
264.8264146724
 21
41.3626845542
 31
0.0
  0
LINE
  5
42D
330
1F
100
AcDbEntity
  8
0
  6
Continuous
 62
     7
370
    50
100
AcDbLine
 10
269.4769628135
 20
37.0448986341
 30
0.0
 11
270.8911763759
 21
37.8613067459
 31
0.0
  0
LINE
  5
42E
330
1F
100
AcDbEntity
  8
0
  6
Continuous
 62
     7
370
    50
100
AcDbLine
 10
269.4769628135
 20
37.0448986341
 30
0.0
 11
266.2406282348
 21
38.9131948186
 31
0.0
  0
ARC
  5
42F
330
1F
100
AcDbEntity
  8
0
  6
Continuous
 62
     7
370
    50
100
AcDbCircle
 10
269.0674622321
 20
35.9635889286
 30
0.0
 40
1.156253175285907
100
AcDbArc
 50
340.5389980879
 51
69.2579248011
  0
ARC
  5
430
330
1F
100
AcDbEntity
  8
0
  6
Continuous
 62
     7
370
    50
100
AcDbCircle
 10
270.1702685082
 20
35.957708291
 30
0.0
 40
2.03553315649183
100
AcDbArc
 50
340.5389980879
 51
69.2579248011
  0
LINE
  5
431
330
1F
100
AcDbEntity
  8
0
  6
Continuous
 62
     7
370
    50
100
AcDbLine
 10
272.0895085547
 20
35.2795395252
 30
0.0
 11
270.1576569021
 21
35.578365634
 31
0.0
  0
ARC
  5
432
330
1F
100
AcDbEntity
  8
0
  6
Continuous
 62
     7
370
    50
100
AcDbCircle
 10
269.9201668551
 20
158.2142100049
 30
0.0
 40
2.339267743289049
100
AcDbArc
 50
5.8452026488
 51
65.4749383088
  0
LINE
  5
433
330
1F
100
AcDbEntity
  8
0
  6
Continuous
 62
     7
370
    50
100
AcDbLine
 10
221.2777101396
 20
33.3815113646
 30
0.0
 11
219.345858487
 21
33.6803374734
 31
0.0
  0
ARC
  5
434
330
1F
100
AcDbEntity
  8
0
  6
Continuous
 62
     7
370
    50
100
AcDbCircle
 10
201.5660592778
 20
40.5863806095
 30
0.0
 40
19.07392701357891
100
AcDbArc
 50
338.7727964365
 51
359.8941025959
  0
LINE
  5
435
330
1F
100
AcDbEntity
  8
0
  6
Continuous
 62
     7
370
    50
100
AcDbLine
 10
220.6399537125
 20
40.5511270843
 30
0.0
 11
222.5718053651
 21
40.2523009756
 31
0.0
  0
ARC
  5
436
330
1F
100
AcDbEntity
  8
0
  6
Continuous
 62
     7
370
    50
100
AcDbCircle
 10
203.4979109303
 20
40.2875545008
 30
0.0
 40
19.07392701358081
100
AcDbArc
 50
338.7727964365
 51
359.8941025959
  0
LINE
  5
437
330
1F
100
AcDbEntity
  8
0
  6
Continuous
 62
     7
370
    50
100
AcDbLine
 10
219.345858487
 20
33.6803374734
 30
0.0
 11
217.449525442
 21
29.5947503702
 31
0.0
  0
LINE
  5
438
330
1F
100
AcDbEntity
  8
0
  6
Continuous
 62
     7
370
    50
100
AcDbLine
 10
217.449525442
 20
152.0758721531
 30
0.0
 11
217.449525442
 21
29.5947503702
 31
0.0
  0
LINE
  5
439
330
1F
100
AcDbEntity
  8
0
  6
Continuous
 62
     7
370
    50
100
AcDbLine
 10
219.345858487
 20
156.1614592563
 30
0.0
 11
217.449525442
 21
152.0758721531
 31
0.0
  0
LWPOLYLINE
  5
43A
330
1F
100
AcDbEntity
  8
0
  6
Continuous
 62
     7
370
    50
100
AcDbPolyline
 90
        9
 70
   128
 43
0.0
 10
220.6399537125
 20
154.8668407483
 10
220.6150880356
 20
155.6097645159
 10
220.541446579
 20
156.2169935756
 10
220.4218593424
 20
156.6651924551
 10
220.2609219965
 20
156.9371371228
 10
220.064819273
 20
157.0223768978
 10
219.8410872897
 20
156.9176360632
 10
219.5983239413
 20
156.6269397506
 10
219.345858487
 20
156.1614592563
  0
LINE
  5
43B
330
1F
100
AcDbEntity
  8
0
  6
Continuous
 62
     7
370
    50
100
AcDbLine
 10
220.6399537125
 20
154.8668407483
 30
0.0
 11
220.6399537125
 21
40.5511270843
 31
0.0
  0
LINE
  5
43C
330
1F
100
AcDbEntity
  8
0
  6
Continuous
 62
     7
370
    50
100
AcDbLine
 10
270.9049278838
 20
32.7273994754
 30
0.0
 11
272.0895085547
 21
35.2795395252
 31
0.0
  0
LINE
  5
43D
330
1F
100
AcDbEntity
  8
0
  6
Continuous
 62
     7
370
    50
100
AcDbLine
 10
268.9730762312
 20
33.0262255842
 30
0.0
 11
270.9049278838
 21
32.7273994754
 31
0.0
  0
LINE
  5
43E
330
1F
100
AcDbEntity
  8
0
  6
Continuous
 62
     7
370
    50
100
AcDbLine
 10
268.9730762312
 20
33.0262255842
 30
0.0
 11
270.1576569021
 21
35.578365634
 31
0.0
  0
LWPOLYLINE
  5
43F
330
1F
100
AcDbEntity
  8
0
  6
Continuous
 62
     7
370
    50
100
AcDbPolyline
 90
        9
 70
   128
 43
0.0
 10
268.455438141
 20
33.5440729873
 10
268.4653844117
 20
33.2469034803
 10
268.4948409944
 20
33.0040118564
 10
268.542675889
 20
32.8247323046
 10
268.6070508274
 20
32.7159544375
 10
268.6854919168
 20
32.6818585275
 10
268.7749847101
 20
32.7237548614
 10
268.8720900495
 20
32.8400333864
 10
268.9730762312
 20
33.0262255842
  0
LINE
  5
440
330
1F
100
AcDbEntity
  8
0
  6
Continuous
 62
     7
370
    50
100
AcDbLine
 10
268.455438141
 20
36.2923888317
 30
0.0
 11
268.455438141
 21
33.5440729873
 31
0.0
  0
LINE
  5
441
330
1F
100
AcDbEntity
  8
0
  6
Continuous
 62
     7
370
    50
100
AcDbLine
 10
265.7378381674
 20
29.4715880073
 30
0.0
 11
265.7378381674
 21
27.6890933291
 31
0.0
  0
ARC
  5
442
330
1F
100
AcDbEntity
  8
0
  6
Continuous
 62
     7
370
    50
100
AcDbCircle
 10
258.1082803935
 20
27.7031947392
 30
0.0
 40
7.629570805431607
100
AcDbArc
 50
338.7727964365
 51
359.8941025959
  0
LINE
  5
443
330
1F
100
AcDbEntity
  8
0
  6
Continuous
 62
     7
370
    50
100
AcDbLine
 10
264.0356194062
 20
22.3886374349
 30
0.0
 11
265.2202000772
 21
24.9407774848
 31
0.0
  0
LINE
  5
444
330
1F
100
AcDbEntity
  8
0
  6
Continuous
 62
     7
370
    50
100
AcDbLine
 10
222.5718053651
 20
154.5680146396
 30
0.0
 11
220.6399537125
 21
154.8668407483
 31
0.0
  0
LINE
  5
445
330
1F
100
AcDbEntity
  8
0
  6
Continuous
 62
     7
370
    50
100
AcDbLine
 10
222.5718053651
 20
154.5680146396
 30
0.0
 11
222.5718053651
 21
40.2523009756
 31
0.0
  0
LINE
  5
446
330
1F
100
AcDbEntity
  8
0
  6
Continuous
 62
     7
370
    50
100
AcDbLine
 10
217.449525442
 20
29.5947503702
 30
0.0
 11
219.3813770946
 21
29.2959242614
 31
0.0
  0
LINE
  5
447
330
1F
100
AcDbEntity
  8
0
  6
Continuous
 62
     7
370
    50
100
AcDbLine
 10
221.2777101396
 20
33.3815113646
 30
0.0
 11
219.3813770946
 21
29.2959242614
 31
0.0
  0
LWPOLYLINE
  5
448
330
1F
100
AcDbEntity
  8
0
  6
Continuous
 62
     7
370
    50
100
AcDbPolyline
 90
        5
 70
   128
 43
0.0
 10
270.9049278838
 20
32.7273994754
 10
270.803941702
 20
32.5412072776
 10
270.7068363627
 20
32.4249287526
 10
270.6173435694
 20
32.3830324188
 10
270.5991963402
 20
32.3839871773
  0
ARC
  5
449
330
1F
100
AcDbEntity
  8
0
  6
Continuous
 62
     7
370
    50
100
AcDbCircle
 10
220.4715717646
 20
28.9107009668
 30
0.0
 40
1.156253175285929
100
AcDbArc
 50
160.5389980879
 51
249.2579248011
  0
LINE
  5
44A
330
1F
100
AcDbEntity
  8
0
  6
Continuous
 62
     7
370
    50
100
AcDbLine
 10
220.0620711832
 20
27.8293912613
 30
0.0
 11
218.6478576208
 21
27.0129831495
 31
0.0
  0
ARC
  5
44B
330
1F
100
AcDbEntity
  8
0
  6
Continuous
 62
     7
370
    50
100
AcDbCircle
 10
219.3687654885
 20
28.9165816044
 30
0.0
 40
2.035533156491774
100
AcDbArc
 50
160.5389980879
 51
249.2579248011
  0
LWPOLYLINE
  5
44C
330
1F
100
AcDbEntity
  8
0
  6
Continuous
 62
     7
370
    50
100
AcDbPolyline
 90
        3
 70
   128
 43
0.0
 10
217.449525442
 20
152.0758721531
 10
217.3313723096
 20
151.7329656139
 10
217.2917620177
 20
151.3840897113
  0
LINE
  5
44D
330
1F
100
AcDbEntity
  8
0
  6
Continuous
 62
     7
370
    50
100
AcDbLine
 10
220.0620711832
 20
27.8293912613
 30
0.0
 11
223.298405762
 21
25.9610950768
 31
0.0
  0
LINE
  5
44E
330
1F
100
AcDbEntity
  8
0
  6
Continuous
 62
     7
370
    50
100
AcDbLine
 10
221.8841921996
 20
25.144686965
 30
0.0
 11
223.298405762
 21
25.9610950768
 31
0.0
  0
LINE
  5
44F
330
1F
100
AcDbEntity
  8
0
  6
Continuous
 62
     7
370
    50
100
AcDbLine
 10
218.6478576208
 20
27.0129831495
 30
0.0
 11
221.8841921996
 21
25.144686965
 31
0.0
  0
LINE
  5
450
330
1F
100
AcDbEntity
  8
0
  6
Continuous
 62
     7
370
    50
100
AcDbLine
 10
224.7126193243
 20
141.9100230647
 30
0.0
 11
224.7126193243
 21
142.3182271206
 31
0.0
  0
LINE
  5
451
330
1F
100
AcDbEntity
  8
0
  6
Continuous
 62
     7
370
    50
100
AcDbLine
 10
224.7126193243
 20
141.9100230647
 30
0.0
 11
232.1372405268
 21
137.6238804776
 31
0.0
  0
LINE
  5
452
330
1F
100
AcDbEntity
  8
0
  6
Continuous
 62
     7
370
    50
100
AcDbLine
 10
232.1372405268
 20
137.6238804776
 30
0.0
 11
232.1372405268
 21
137.8279825056
 31
0.0
  0
LINE
  5
453
330
1F
100
AcDbEntity
  8
0
  6
Continuous
 62
     7
370
    50
100
AcDbLine
 10
233.5514540892
 20
20.0421362661
 30
0.0
 11
236.7877886679
 21
18.1738400816
 31
0.0
  0
ARC
  5
454
330
1F
100
AcDbEntity
  8
0
  6
Continuous
 62
     7
370
    50
100
AcDbCircle
 10
235.2076727295
 20
22.6313477062
 30
0.0
 40
3.073609615144154
100
AcDbArc
 50
182.6054784857
 51
237.39452166
  0
LINE
  5
455
330
1F
100
AcDbEntity
  8
0
  6
Continuous
 62
     7
370
    50
100
AcDbLine
 10
232.1372405268
 20
24.3288096534
 30
0.0
 11
232.1372405268
 21
22.4916260017
 31
0.0
  0
LINE
  5
456
330
1F
100
AcDbEntity
  8
0
  6
Continuous
 62
     7
370
    50
100
AcDbLine
 10
224.7126193243
 20
28.8190542685
 30
0.0
 11
224.7126193243
 21
26.7777685888
 31
0.0
  0
ARC
  5
457
330
1F
100
AcDbEntity
  8
0
  6
Continuous
 62
     7
370
    50
100
AcDbCircle
 10
223.8504705895
 20
26.637914195
 30
0.0
 40
0.8734183948569487
100
AcDbArc
 50
230.7967147643
 51
9.2140369905
  0
LINE
  5
458
330
1F
100
AcDbEntity
  8
0
  6
Continuous
 62
     7
370
    50
100
AcDbLine
 10
267.1520517298
 20
24.641951376
 30
0.0
 11
265.2202000772
 21
24.9407774848
 31
0.0
  0
LINE
  5
459
330
1F
100
AcDbEntity
  8
0
  6
Continuous
 62
     7
370
    50
100
AcDbLine
 10
265.7378381674
 20
27.6890933291
 30
0.0
 11
267.66968982
 21
27.3902672204
 31
0.0
  0
ARC
  5
45A
330
1F
100
AcDbEntity
  8
0
  6
Continuous
 62
     7
370
    50
100
AcDbCircle
 10
260.0401320461
 20
27.4043686304
 30
0.0
 40
7.629570805430988
100
AcDbArc
 50
338.7727964365
 51
359.8941025959
  0
LINE
  5
45B
330
1F
100
AcDbEntity
  8
0
  6
Continuous
 62
     7
370
    50
100
AcDbLine
 10
257.755013322
 20
20.6312169026
 30
0.0
 11
262.1759285717
 21
21.3150607679
 31
0.0
  0
ARC
  5
45C
330
1F
100
AcDbEntity
  8
0
  6
Continuous
 62
     7
370
    50
100
AcDbCircle
 10
257.3365622141
 20
22.0910263673
 30
0.0
 40
1.518599684952994
100
AcDbArc
 50
184.7424823785
 51
285.9948311059
  0
LINE
  5
45D
330
1F
100
AcDbEntity
  8
0
  6
Continuous
 62
     7
370
    50
100
AcDbLine
 10
255.8231616694
 20
23.8973801501
 30
0.0
 11
255.8231616694
 21
21.9654724175
 31
0.0
  0
LINE
  5
45E
330
1F
100
AcDbEntity
  8
0
  6
Continuous
 62
     7
370
    50
100
AcDbLine
 10
245.6809404934
 20
22.3186803599
 30
0.0
 11
245.6809404934
 21
20.3966353464
 31
0.0
  0
ARC
  5
45F
330
1F
100
AcDbEntity
  8
0
  6
Continuous
 62
     7
370
    50
100
AcDbCircle
 10
243.5211402406
 20
20.6245212505
 30
0.0
 40
2.17178938140218
100
AcDbArc
 50
276.0247979745
 51
353.9768652481
  0
LINE
  5
460
330
1F
100
AcDbEntity
  8
0
  6
Continuous
 62
     7
370
    50
100
AcDbLine
 10
239.3281735911
 20
17.7808837486
 30
0.0
 11
243.7490888408
 21
18.4647276139
 31
0.0
  0
ARC
  5
461
330
1F
100
AcDbEntity
  8
0
  6
Continuous
 62
     7
370
    50
100
AcDbCircle
 10
222.4700323093
 20
25.9624496232
 30
0.0
 40
1.00595447180361
100
AcDbArc
 50
234.3824225248
 51
294.3071190461
  0
LINE
  5
462
330
1F
100
AcDbEntity
  8
0
  6
Continuous
 62
     7
370
    50
100
AcDbLine
 10
267.66968982
 20
29.1727618985
 30
0.0
 11
267.66968982
 21
27.3902672204
 31
0.0
  0
LINE
  5
463
330
1F
100
AcDbEntity
  8
0
  6
Continuous
 62
     7
370
    50
100
AcDbLine
 10
264.0356194062
 20
22.3886374349
 30
0.0
 11
265.9674710588
 21
22.0898113261
 31
0.0
  0
LINE
  5
464
330
1F
100
AcDbEntity
  8
0
  6
Continuous
 62
     7
370
    50
100
AcDbLine
 10
265.9674710588
 20
22.0898113261
 30
0.0
 11
267.1520517298
 21
24.641951376
 31
0.0
  0
ARC
  5
465
330
1F
100
AcDbEntity
  8
0
  6
Continuous
 62
     7
370
    50
100
AcDbCircle
 10
262.0321391503
 20
23.711640703
 30
0.0
 40
2.400889581605865
100
AcDbArc
 50
273.433502328
 51
326.5611211393
  0
ARC
  5
466
330
1F
100
AcDbEntity
  8
0
  6
Continuous
 62
     7
370
    50
100
AcDbCircle
 10
262.4404316729
 20
24.4189007296
 30
0.0
 40
4.226661126552983
100
AcDbArc
 50
273.433502328
 51
326.5611211393
  0
LINE
  5
467
330
1F
100
AcDbEntity
  8
0
  6
Continuous
 62
     7
370
    50
100
AcDbLine
 10
262.6935666619
 20
20.1998265473
 30
0.0
 11
262.1759285717
 21
21.3150607679
 31
0.0
  0
LINE
  5
468
330
1F
100
AcDbEntity
  8
0
  6
Continuous
 62
     7
370
    50
100
AcDbLine
 10
257.755013322
 20
20.6312169026
 30
0.0
 11
258.2726514122
 21
19.515982682
 31
0.0
  0
LINE
  5
469
330
1F
100
AcDbEntity
  8
0
  6
Continuous
 62
     7
370
    50
100
AcDbLine
 10
258.2726514122
 20
19.515982682
 30
0.0
 11
262.6935666619
 21
20.1998265473
 31
0.0
  0
ARC
  5
46A
330
1F
100
AcDbEntity
  8
0
  6
Continuous
 62
     7
370
    50
100
AcDbCircle
 10
257.8687122485
 20
21.0652928627
 30
0.0
 40
1.601102396561461
100
AcDbArc
 50
208.2669909354
 51
284.6129546033
  0
LINE
  5
46B
330
1F
100
AcDbEntity
  8
0
  6
Continuous
 62
     7
370
    50
100
AcDbLine
 10
233.5514540892
 20
20.0421362661
 30
0.0
 11
232.1372405268
 21
19.2257281543
 31
0.0
  0
LINE
  5
46C
330
1F
100
AcDbEntity
  8
0
  6
Continuous
 62
     7
370
    50
100
AcDbLine
 10
230.7230269644
 20
21.6752178899
 30
0.0
 11
232.1372405268
 21
22.4916260017
 31
0.0
  0
ARC
  5
46D
330
1F
100
AcDbEntity
  8
0
  6
Continuous
 62
     7
370
    50
100
AcDbCircle
 10
233.7934591672
 20
21.8149395944
 30
0.0
 40
3.073609615144121
100
AcDbArc
 50
182.6054784857
 51
237.39452166
  0
LINE
  5
46E
330
1F
100
AcDbEntity
  8
0
  6
Continuous
 62
     7
370
    50
100
AcDbLine
 10
230.7230269644
 20
23.5124015416
 30
0.0
 11
230.7230269644
 21
21.6752178899
 31
0.0
  0
LINE
  5
46F
330
1F
100
AcDbEntity
  8
0
  6
Continuous
 62
     7
370
    50
100
AcDbLine
 10
235.3735751055
 20
17.3574319698
 30
0.0
 11
236.7877886679
 21
18.1738400816
 31
0.0
  0
LINE
  5
470
330
1F
100
AcDbEntity
  8
0
  6
Continuous
 62
     7
370
    50
100
AcDbLine
 10
232.1372405268
 20
19.2257281543
 30
0.0
 11
235.3735751055
 21
17.3574319698
 31
0.0
  0
LINE
  5
471
330
1F
100
AcDbEntity
  8
0
  6
Continuous
 62
     7
370
    50
100
AcDbLine
 10
239.3281735911
 20
17.7808837486
 30
0.0
 11
239.8458116813
 21
16.665649528
 31
0.0
  0
LINE
  5
472
330
1F
100
AcDbEntity
  8
0
  6
Continuous
 62
     7
370
    50
100
AcDbLine
 10
244.266726931
 20
17.3494933933
 30
0.0
 11
243.7490888408
 21
18.4647276139
 31
0.0
  0
LINE
  5
473
330
1F
100
AcDbEntity
  8
0
  6
Continuous
 62
     7
370
    50
100
AcDbLine
 10
239.8458116813
 20
16.665649528
 30
0.0
 11
244.266726931
 21
17.3494933933
 31
0.0
  0
LINE
  5
474
330
1F
100
AcDbEntity
  8
0
  6
Continuous
 62
     7
370
    50
100
AcDbLine
 10
245.6809404934
 20
20.3966353464
 30
0.0
 11
246.1985785836
 21
19.2814011258
 31
0.0
  0
ARC
  5
475
330
1F
100
AcDbEntity
  8
0
  6
Continuous
 62
     7
370
    50
100
AcDbCircle
 10
244.0387783308
 20
19.5092870299
 30
0.0
 40
2.171789381402252
100
AcDbArc
 50
276.0247979745
 51
353.9768652481
  0
ARC
  5
476
330
1F
100
AcDbEntity
  8
0
  6
Continuous
 62
     7
370
    50
100
AcDbCircle
 10
238.6430153144
 20
21.7594921362
 30
0.0
 40
4.037173090974082
100
AcDbArc
 50
242.642825155
 51
279.7710969793
  0
ARC
  5
477
330
1F
100
AcDbEntity
  8
0
  6
Continuous
 62
     7
370
    50
100
AcDbCircle
 10
238.6396204946
 20
23.6698156249
 30
0.0
 40
7.107266696277188
100
AcDbArc
 50
242.642825155
 51
279.7710969793
  0
LINE
  5
478
330
1F
100
AcDbEntity
  8
0
  6
Continuous
 62
     7
370
    50
100
AcDbLine
 10
246.1985785836
 20
21.4720998599
 30
0.0
 11
246.1985785836
 21
19.2814011258
 31
0.0
  0
LINE
  5
479
330
1F
100
AcDbEntity
  8
0
  6
Continuous
 62
     7
370
    50
100
AcDbLine
 10
266.2406282348
 20
161.3940512013
 30
0.0
 11
264.8264146724
 21
160.5776430895
 31
0.0
  0
LINE
  5
47A
330
1F
100
AcDbEntity
  8
0
  6
Continuous
 62
     7
370
    50
100
AcDbLine
 10
264.8264146724
 20
160.5773776894
 30
0.0
 11
264.8264146724
 21
160.5776430895
 31
0.0
  0
ARC
  5
47B
330
1F
100
AcDbEntity
  8
0
  6
Continuous
 62
     7
370
    50
100
AcDbCircle
 10
265.7777857844
 20
160.6987711466
 30
0.0
 40
0.9590510929806604
100
AcDbArc
 50
124.0563508371
 51
187.2558295563
  0
ARC
  5
47C
330
1F
100
AcDbEntity
  8
0
  6
Continuous
 62
     7
370
    50
100
AcDbCircle
 10
220.0920895573
 20
155.0996461647
 30
0.0
 40
2.53606438521477
100
AcDbArc
 50
347.8994141941
 51
39.7458641494
  0
LINE
  5
47D
330
1F
100
AcDbEntity
  8
0
  6
Continuous
 62
     8
370
    50
100
AcDbLine
 10
238.4080455334
 20
48.3863764142
 30
0.0
 11
238.4080455334
 21
48.2350393108
 31
0.0
  0
LINE
  5
47E
330
1F
100
AcDbEntity
  8
0
  6
Continuous
 62
     8
370
    50
100
AcDbLine
 10
264.4375059427
 20
42.9753559752
 30
0.0
 11
264.4375059427
 21
42.8120743528
 31
0.0
  0
LINE
  5
47F
330
1F
100
AcDbEntity
  8
0
  6
Continuous
 62
     8
370
    50
100
AcDbLine
 10
268.1009556318
 20
35.5286679381
 30
0.0
 11
268.1009556318
 21
35.0825742498
 31
0.0
  0
LINE
  5
480
330
1F
100
AcDbEntity
  8
0
  6
Continuous
 62
     8
370
    50
100
AcDbLine
 10
225.101528054
 20
28.4312604153
 30
0.0
 11
225.101528054
 21
28.5945420377
 31
0.0
  0
LINE
  5
481
330
1F
100
AcDbEntity
  8
0
  6
Continuous
 62
     8
370
    50
100
AcDbLine
 10
255.5040344993
 20
23.7882511326
 30
0.0
 11
255.5040344993
 21
23.7284859108
 31
0.0
  0
LINE
  5
482
330
1F
100
AcDbEntity
  8
0
  6
Continuous
 62
     8
370
    50
100
AcDbLine
 10
237.4898231836
 20
148.2397121405
 30
0.0
 11
237.4898231836
 21
148.0166652964
 31
0.0
  0
LINE
  5
483
330
1F
100
AcDbEntity
  8
0
  6
Continuous
 62
     8
370
    50
100
AcDbLine
 10
225.101528054
 20
141.9304332675
 30
0.0
 11
225.101528054
 21
142.0937148898
 31
0.0
  0
LINE
  5
484
330
1F
100
AcDbEntity
  8
0
  6
Continuous
 62
     8
370
    50
100
AcDbLine
 10
270.1576569021
 20
36.3642783001
 30
0.0
 11
270.1576569021
 21
35.578365634
 31
0.0
  0
LINE
  5
485
330
1F
100
AcDbEntity
  8
0
  6
Continuous
 62
     8
370
    50
100
AcDbLine
 10
264.0356194062
 20
26.7700349031
 30
0.0
 11
264.0356194062
 21
22.3886374349
 31
0.0
  0
LINE
  5
486
330
1F
100
AcDbEntity
  8
0
  6
Continuous
 62
     8
370
    50
100
AcDbLine
 10
220.0620711832
 20
30.7624572615
 30
0.0
 11
220.0620711832
 21
27.8293912613
 31
0.0
  0
LINE
  5
487
330
1F
100
AcDbEntity
  8
0
  6
Continuous
 62
     8
370
    50
100
AcDbLine
 10
236.7877886679
 20
135.3473809531
 30
0.0
 11
236.7877886679
 21
50.077441209
 31
0.0
  0
LINE
  5
488
330
1F
100
AcDbEntity
  8
0
  6
Continuous
 62
     8
370
    50
100
AcDbLine
 10
236.7877886679
 20
21.848208101
 30
0.0
 11
236.7877886679
 21
18.1738400816
 31
0.0
  0
LINE
  5
489
330
1F
100
AcDbEntity
  8
0
  6
Continuous
 62
     8
370
    50
100
AcDbLine
 10
239.3281735911
 20
21.3590055233
 30
0.0
 11
239.3281735911
 21
17.7808837486
 31
0.0
  0
LINE
  5
48A
330
1F
100
AcDbEntity
  8
0
  6
Continuous
 62
     8
370
    50
100
AcDbLine
 10
262.1759285717
 20
24.9234008719
 30
0.0
 11
262.1759285717
 21
21.3150607679
 31
0.0
  0
ENDSEC
  0
SECTION
  2
OBJECTS
  0
DICTIONARY
  5
C
330
0
100
AcDbDictionary
281
     1
  3
ACAD_DETAILVIEWSTYLE
350
492
  3
ACAD_GROUP
350
D
  3
ACAD_LAYOUT
350
1A
  3
ACAD_MATERIAL
350
43
  3
ACAD_MLEADERSTYLE
350
6B
  3
ACAD_MLINESTYLE
350
17
  3
ACAD_PLOTSETTINGS
350
19
  3
ACAD_PLOTSTYLENAME
350
E
  3
ACAD_SCALELIST
350
47
  3
ACAD_SECTIONVIEWSTYLE
350
493
  3
ACAD_TABLESTYLE
350
69
  3
ACAD_VISUALSTYLE
350
2A
  3
ACDB_RECOMPOSE_DATA
350
48F
  3
AcDbVariableDictionary
350
48B
  0
SUN
  5
6D
330
29
100
AcDbSun
 90
        1
290
     0
 63
     7
421
 16777215
 40
1.0
291
     1
 91
  2455826
 92
 54000000
292
     0
 70
     2
 71
   256
280
     1
  0
DICTIONARY
  5
492
102
{ACAD_REACTORS
330
C
102
}
330
C
100
AcDbDictionary
281
     1
  0
DICTIONARY
  5
D
102
{ACAD_REACTORS
330
C
102
}
330
C
100
AcDbDictionary
281
     1
  0
DICTIONARY
  5
1A
102
{ACAD_REACTORS
330
C
102
}
330
C
100
AcDbDictionary
281
     1
  3
Layout1
350
1E
  3
Layout2
350
26
  3
Model
350
22
  0
DICTIONARY
  5
43
102
{ACAD_REACTORS
330
C
102
}
330
C
100
AcDbDictionary
281
     1
  3
ByBlock
350
45
  3
ByLayer
350
44
  3
Global
350
46
  0
DICTIONARY
  5
6B
102
{ACAD_REACTORS
330
C
102
}
330
C
100
AcDbDictionary
281
     1
  3
Standard
350
6C
  0
DICTIONARY
  5
17
102
{ACAD_REACTORS
330
C
102
}
330
C
100
AcDbDictionary
281
     1
  3
Standard
350
18
  0
DICTIONARY
  5
19
102
{ACAD_REACTORS
330
C
102
}
330
C
100
AcDbDictionary
281
     1
  0
ACDBDICTIONARYWDFLT
  5
E
102
{ACAD_REACTORS
330
C
102
}
330
C
100
AcDbDictionary
281
     1
  3
Normal
350
F
100
AcDbDictionaryWithDefault
340
F
  0
DICTIONARY
  5
47
102
{ACAD_REACTORS
330
C
102
}
330
C
100
AcDbDictionary
281
     1
  3
A0
350
48
  3
A1
350
49
  3
A2
350
4A
  3
A3
350
4B
  3
A4
350
4C
  3
A5
350
4D
  3
A6
350
4E
  3
A7
350
4F
  3
A8
350
50
  3
A9
350
51
  3
B0
350
52
  3
B1
350
53
  3
B2
350
54
  3
B3
350
55
  3
B4
350
56
  3
B5
350
57
  3
B6
350
58
  3
B7
350
59
  3
B8
350
5A
  3
B9
350
5B
  3
C0
350
5C
  3
C1
350
5D
  3
C2
350
5E
  3
C3
350
5F
  3
C4
350
60
  3
C5
350
61
  3
C6
350
62
  3
C7
350
63
  3
C8
350
64
  3
C9
350
65
  3
D0
350
66
  3
D1
350
67
  3
D2
350
68
  0
DICTIONARY
  5
493
102
{ACAD_REACTORS
330
C
102
}
330
C
100
AcDbDictionary
281
     1
  0
DICTIONARY
  5
69
102
{ACAD_REACTORS
330
C
102
}
330
C
100
AcDbDictionary
281
     1
  3
Standard
350
6A
  0
DICTIONARY
  5
2A
102
{ACAD_REACTORS
330
C
102
}
330
C
100
AcDbDictionary
281
     1
  3
2dWireframe
350
2F
  3
Basic
350
32
  3
Brighten
350
36
  3
ColorChange
350
3A
  3
Conceptual
350
34
  3
Dim
350
35
  3
EdgeColorOff
350
3D
  3
Facepattern
350
39
  3
Flat
350
2B
  3
FlatWithEdges
350
2C
  3
Gouraud
350
2D
  3
GouraudWithEdges
350
2E
  3
Hidden
350
31
  3
JitterOff
350
3B
  3
Linepattern
350
38
  3
OverhangOff
350
3C
  3
Realistic
350
33
  3
Shaded
350
42
  3
Shaded with edges
350
41
  3
Shades of Gray
350
3E
  3
Sketchy
350
3F
  3
Thicken
350
37
  3
Wireframe
350
30
  3
X-Ray
350
40
  0
XRECORD
  5
48F
102
{ACAD_REACTORS
330
C
102
}
330
C
100
AcDbXrecord
280
     1
 90
        1
330
6A
  0
DICTIONARY
  5
48B
102
{ACAD_REACTORS
330
C
102
}
330
C
100
AcDbDictionary
281
     1
  3
CANNOSCALE
350
48C
  3
CENTEREXE
350
494
  3
CENTERLTYPEFILE
350
495
  3
CMLEADERSTYLE
350
491
  3
CTABLESTYLE
350
490
  0
LAYOUT
  5
1E
102
{ACAD_REACTORS
330
1A
102
}
330
1A
100
AcDbPlotSettings
  1

  2
none_device
  4

  6

 40
0.0
 41
0.0
 42
0.0
 43
0.0
 44
0.0
 45
0.0
 46
0.0
 47
0.0
 48
0.0
 49
0.0
140
0.0
141
0.0
142
1.0
143
1.0
 70
   688
 72
     1
 73
     0
 74
     5
  7

 75
    16
 76
     0
 77
     2
 78
   300
147
1.0
148
0.0
149
0.0
100
AcDbLayout
  1
Layout1
 70
     1
 71
     1
 10
0.0
 20
0.0
 11
420.0
 21
297.0
 12
0.0
 22
0.0
 32
0.0
 14
1.0000000000E+20
 24
1.0000000000E+20
 34
1.0000000000E+20
 15
-1.0000000000E+20
 25
-1.0000000000E+20
 35
-1.0000000000E+20
146
0.0
 13
0.0
 23
0.0
 33
0.0
 16
1.0
 26
0.0
 36
0.0
 17
0.0
 27
1.0
 37
0.0
 76
     0
330
1B
  0
LAYOUT
  5
26
102
{ACAD_REACTORS
330
1A
102
}
330
1A
100
AcDbPlotSettings
  1

  2
none_device
  4

  6

 40
0.0
 41
0.0
 42
0.0
 43
0.0
 44
0.0
 45
0.0
 46
0.0
 47
0.0
 48
0.0
 49
0.0
140
0.0
141
0.0
142
1.0
143
1.0
 70
   688
 72
     1
 73
     0
 74
     5
  7

 75
    16
 76
     0
 77
     2
 78
   300
147
1.0
148
0.0
149
0.0
100
AcDbLayout
  1
Layout2
 70
     1
 71
     2
 10
0.0
 20
0.0
 11
0.0
 21
0.0
 12
0.0
 22
0.0
 32
0.0
 14
0.0
 24
0.0
 34
0.0
 15
0.0
 25
0.0
 35
0.0
146
0.0
 13
0.0
 23
0.0
 33
0.0
 16
1.0
 26
0.0
 36
0.0
 17
0.0
 27
1.0
 37
0.0
 76
     0
330
23
  0
LAYOUT
  5
22
102
{ACAD_REACTORS
330
1A
102
}
330
1A
100
AcDbPlotSettings
  1

  2
none_device
  4
Letter_(8.50_x_11.00_Inches)
  6

 40
6.35
 41
6.35
 42
6.35000508
 43
6.35000508
 44
215.9
 45
279.4
 46
0.0
 47
0.0
 48
0.0
 49
0.0
140
0.0
141
0.0
142
1.0
143
1.0
 70
  1712
 72
     1
 73
     0
 74
     0
  7

 75
     0
 76
     0
 77
     2
 78
   300
147
1.0
148
0.0
149
0.0
100
AcDbLayout
  1
Model
 70
     1
 71
     0
 10
0.0
 20
0.0
 11
300.0
 21
420.0
 12
0.0
 22
0.0
 32
0.0
 14
0.0
 24
0.0
 34
0.0
 15
300.0
 25
420.0
 35
0.0
146
0.0
 13
0.0
 23
0.0
 33
0.0
 16
1.0
 26
0.0
 36
0.0
 17
0.0
 27
1.0
 37
0.0
 76
     0
330
1F
331
29
  0
MATERIAL
  5
45
102
{ACAD_REACTORS
330
43
102
}
330
43
100
AcDbMaterial
  1
ByBlock
 72
     1
 94
      127
  0
MATERIAL
  5
44
102
{ACAD_REACTORS
330
43
102
}
330
43
100
AcDbMaterial
  1
ByLayer
 72
     1
 94
      127
  0
MATERIAL
  5
46
102
{ACAD_REACTORS
330
43
102
}
330
43
100
AcDbMaterial
  1
Global
 72
     1
 94
      127
  0
MLEADERSTYLE
  5
6C
102
{ACAD_REACTORS
330
6B
102
}
330
6B
100
AcDbMLeaderStyle
179
     2
170
     2
171
     1
172
     0
 90
        2
 40
0.0
 41
0.0
173
     1
 91
-1056964608
340
14
 92
       -2
290
     1
 42
2.0
291
     1
 43
8.0
  3
Standard
341
0
 44
4.0
300

342
11
174
     1
178
     6
175
     1
176
     0
 93
-1056964608
 45
4.0
292
     0
297
     0
 46
4.0
343
0
 94
-1056964608
 47
1.0
 49
1.0
140
1.0
293
     1
141
0.0
294
     1
177
     0
142
1.0
295
     0
296
     0
143
3.75
271
     0
272
     9
273
     9
298
     0
  0
MLINESTYLE
  5
18
102
{ACAD_REACTORS
330
17
102
}
330
17
100
AcDbMlineStyle
  2
Standard
 70
     0
  3

 62
   256
 51
90.0
 52
90.0
 71
     2
 49
0.5
 62
   256
  6
BYLAYER
 49
-0.5
 62
   256
  6
BYLAYER
  0
ACDBPLACEHOLDER
  5
F
102
{ACAD_REACTORS
330
E
102
}
330
E
  0
SCALE
  5
48
102
{ACAD_REACTORS
330
47
102
}
330
47
100
AcDbScale
 70
     0
300
1:1
140
1.0
141
1.0
290
     1
  0
SCALE
  5
49
102
{ACAD_REACTORS
330
47
102
}
330
47
100
AcDbScale
 70
     0
300
1:2
140
1.0
141
2.0
290
     0
  0
SCALE
  5
4A
102
{ACAD_REACTORS
330
47
102
}
330
47
100
AcDbScale
 70
     0
300
1:4
140
1.0
141
4.0
290
     0
  0
SCALE
  5
4B
102
{ACAD_REACTORS
330
47
102
}
330
47
100
AcDbScale
 70
     0
300
1:5
140
1.0
141
5.0
290
     0
  0
SCALE
  5
4C
102
{ACAD_REACTORS
330
47
102
}
330
47
100
AcDbScale
 70
     0
300
1:8
140
1.0
141
8.0
290
     0
  0
SCALE
  5
4D
102
{ACAD_REACTORS
330
47
102
}
330
47
100
AcDbScale
 70
     0
300
1:10
140
1.0
141
10.0
290
     0
  0
SCALE
  5
4E
102
{ACAD_REACTORS
330
47
102
}
330
47
100
AcDbScale
 70
     0
300
1:16
140
1.0
141
16.0
290
     0
  0
SCALE
  5
4F
102
{ACAD_REACTORS
330
47
102
}
330
47
100
AcDbScale
 70
     0
300
1:20
140
1.0
141
20.0
290
     0
  0
SCALE
  5
50
102
{ACAD_REACTORS
330
47
102
}
330
47
100
AcDbScale
 70
     0
300
1:30
140
1.0
141
30.0
290
     0
  0
SCALE
  5
51
102
{ACAD_REACTORS
330
47
102
}
330
47
100
AcDbScale
 70
     0
300
1:40
140
1.0
141
40.0
290
     0
  0
SCALE
  5
52
102
{ACAD_REACTORS
330
47
102
}
330
47
100
AcDbScale
 70
     0
300
1:50
140
1.0
141
50.0
290
     0
  0
SCALE
  5
53
102
{ACAD_REACTORS
330
47
102
}
330
47
100
AcDbScale
 70
     0
300
1:100
140
1.0
141
100.0
290
     0
  0
SCALE
  5
54
102
{ACAD_REACTORS
330
47
102
}
330
47
100
AcDbScale
 70
     0
300
2:1
140
2.0
141
1.0
290
     0
  0
SCALE
  5
55
102
{ACAD_REACTORS
330
47
102
}
330
47
100
AcDbScale
 70
     0
300
4:1
140
4.0
141
1.0
290
     0
  0
SCALE
  5
56
102
{ACAD_REACTORS
330
47
102
}
330
47
100
AcDbScale
 70
     0
300
8:1
140
8.0
141
1.0
290
     0
  0
SCALE
  5
57
102
{ACAD_REACTORS
330
47
102
}
330
47
100
AcDbScale
 70
     0
300
10:1
140
10.0
141
1.0
290
     0
  0
SCALE
  5
58
102
{ACAD_REACTORS
330
47
102
}
330
47
100
AcDbScale
 70
     0
300
100:1
140
100.0
141
1.0
290
     0
  0
SCALE
  5
59
102
{ACAD_REACTORS
330
47
102
}
330
47
100
AcDbScale
 70
     0
300
1/128" = 1'-0"
140
0.0078125
141
12.0
290
     0
  0
SCALE
  5
5A
102
{ACAD_REACTORS
330
47
102
}
330
47
100
AcDbScale
 70
     0
300
1/64" = 1'-0"
140
0.015625
141
12.0
290
     0
  0
SCALE
  5
5B
102
{ACAD_REACTORS
330
47
102
}
330
47
100
AcDbScale
 70
     0
300
1/32" = 1'-0"
140
0.03125
141
12.0
290
     0
  0
SCALE
  5
5C
102
{ACAD_REACTORS
330
47
102
}
330
47
100
AcDbScale
 70
     0
300
1/16" = 1'-0"
140
0.0625
141
12.0
290
     0
  0
SCALE
  5
5D
102
{ACAD_REACTORS
330
47
102
}
330
47
100
AcDbScale
 70
     0
300
3/32" = 1'-0"
140
0.09375
141
12.0
290
     0
  0
SCALE
  5
5E
102
{ACAD_REACTORS
330
47
102
}
330
47
100
AcDbScale
 70
     0
300
1/8" = 1'-0"
140
0.125
141
12.0
290
     0
  0
SCALE
  5
5F
102
{ACAD_REACTORS
330
47
102
}
330
47
100
AcDbScale
 70
     0
300
3/16" = 1'-0"
140
0.1875
141
12.0
290
     0
  0
SCALE
  5
60
102
{ACAD_REACTORS
330
47
102
}
330
47
100
AcDbScale
 70
     0
300
1/4" = 1'-0"
140
0.25
141
12.0
290
     0
  0
SCALE
  5
61
102
{ACAD_REACTORS
330
47
102
}
330
47
100
AcDbScale
 70
     0
300
3/8" = 1'-0"
140
0.375
141
12.0
290
     0
  0
SCALE
  5
62
102
{ACAD_REACTORS
330
47
102
}
330
47
100
AcDbScale
 70
     0
300
1/2" = 1'-0"
140
0.5
141
12.0
290
     0
  0
SCALE
  5
63
102
{ACAD_REACTORS
330
47
102
}
330
47
100
AcDbScale
 70
     0
300
3/4" = 1'-0"
140
0.75
141
12.0
290
     0
  0
SCALE
  5
64
102
{ACAD_REACTORS
330
47
102
}
330
47
100
AcDbScale
 70
     0
300
1" = 1'-0"
140
1.0
141
12.0
290
     0
  0
SCALE
  5
65
102
{ACAD_REACTORS
330
47
102
}
330
47
100
AcDbScale
 70
     0
300
1-1/2" = 1'-0"
140
1.5
141
12.0
290
     0
  0
SCALE
  5
66
102
{ACAD_REACTORS
330
47
102
}
330
47
100
AcDbScale
 70
     0
300
3" = 1'-0"
140
3.0
141
12.0
290
     0
  0
SCALE
  5
67
102
{ACAD_REACTORS
330
47
102
}
330
47
100
AcDbScale
 70
     0
300
6" = 1'-0"
140
6.0
141
12.0
290
     0
  0
SCALE
  5
68
102
{ACAD_REACTORS
330
47
102
}
330
47
100
AcDbScale
 70
     0
300
1'-0" = 1'-0"
140
12.0
141
12.0
290
     0
  0
TABLESTYLE
  5
6A
102
{ACAD_REACTORS
330
69
102
}
102
{ACAD_XDICTIONARY
360
48D
102
}
330
69
100
AcDbTableStyle
  3
Standard
 70
     0
 71
     0
 40
0.06
 41
0.06
280
     0
281
     0
  7
Standard
140
4.5
170
     2
 62
     0
 63
   257
283
     0
 90
        4
 91
        0
  1

274
    -2
284
     1
 64
     0
275
    -2
285
     1
 65
     0
276
    -2
286
     1
 66
     0
277
    -2
287
     1
 67
     0
278
    -2
288
     1
 68
     0
279
    -2
289
     1
 69
     0
  7
Standard
140
6.0
170
     5
 62
     0
 63
   257
283
     0
 90
        4
 91
        0
  1

274
    -2
284
     1
 64
     0
275
    -2
285
     1
 65
     0
276
    -2
286
     1
 66
     0
277
    -2
287
     1
 67
     0
278
    -2
288
     1
 68
     0
279
    -2
289
     1
 69
     0
  7
Standard
140
4.5
170
     5
 62
     0
 63
   257
283
     0
 90
        4
 91
        0
  1

274
    -2
284
     1
 64
     0
275
    -2
285
     1
 65
     0
276
    -2
286
     1
 66
     0
277
    -2
287
     1
 67
     0
278
    -2
288
     1
 68
     0
279
    -2
289
     1
 69
     0
  0
VISUALSTYLE
  5
2F
102
{ACAD_REACTORS
330
2A
102
}
330
2A
100
AcDbVisualStyle
  2
2dWireframe
 70
     4
177
     3
291
     0
 70
    58
 90
        0
176
     1
 90
        2
176
     1
 90
        0
176
     1
 90
        0
176
     1
 40
0.6
176
     1
 40
30.0
176
     1
 62
     7
420
 16777215
176
     1
 90
        1
176
     1
 90
        4
176
     1
 62
     7
176
     1
 62
   257
176
     1
 90
        1
176
     1
 90
        1
176
     1
 40
1.0
176
     1
 90
        0
176
     1
 62
   257
176
     1
 40
1.0
176
     1
 90
        1
176
     1
 90
        6
176
     1
 90
        2
176
     1
 62
     7
176
     1
 90
        5
176
     1
 90
        0
176
     1
 90
        0
176
     1
290
     0
176
     1
 90
        1
176
     1
 40
0.0
176
     1
 90
        0
176
     1
290
     1
176
     1
290
     1
176
     1
290
     0
176
     1
290
     0
176
     1
290
     0
176
     1
290
     0
176
     1
290
     0
176
     1
290
     0
176
     1
290
     0
176
     1
 90
       50
176
     1
 40
0.0
176
     1
 40
1.0
176
     1
 90
        0
176
     1
 62
    18
420
        0
176
     1
 90
       50
176
     1
 90
        3
176
     1
 62
     5
420
      255
176
     1
290
     0
176
     1
 90
       50
176
     1
 90
       50
176
     1
 90
       50
176
     1
290
     0
176
     1
 90
       50
176
     1
 62
   256
176
     0
 40
1.0
176
     0
 90
        2
176
     1
  1
strokes_ogs.tif
176
     1
290
     0
176
     1
 40
1.0
176
     1
 40
1.0
176
     1
  0
VISUALSTYLE
  5
32
102
{ACAD_REACTORS
330
2A
102
}
330
2A
100
AcDbVisualStyle
  2
Basic
 70
     7
177
     3
291
     1
 70
    58
 90
        1
176
     1
 90
        0
176
     1
 90
        1
176
     1
 90
        0
176
     1
 40
0.6
176
     1
 40
30.0
176
     1
 62
     7
420
 16777215
176
     1
 90
        0
176
     1
 90
        4
176
     1
 62
     7
176
     1
 62
   257
176
     1
 90
        1
176
     1
 90
        1
176
     1
 40
1.0
176
     1
 90
        8
176
     1
 62
     7
176
     1
 40
1.0
176
     1
 90
        1
176
     1
 90
        6
176
     1
 90
        2
176
     1
 62
     7
176
     1
 90
        5
176
     1
 90
        0
176
     1
 90
        0
176
     1
290
     0
176
     1
 90
        1
176
     1
 40
0.0
176
     1
 90
        0
176
     1
290
     0
176
     1
290
     1
176
     1
290
     1
176
     1
290
     0
176
     1
290
     0
176
     1
290
     0
176
     1
290
     0
176
     1
290
     0
176
     1
290
     0
176
     1
 90
       50
176
     1
 40
0.0
176
     1
 40
1.0
176
     1
 90
        0
176
     1
 62
    18
420
        0
176
     1
 90
       50
176
     1
 90
        3
176
     1
 62
     5
420
      255
176
     1
290
     0
176
     1
 90
       50
176
     1
 90
       50
176
     1
 90
       50
176
     1
290
     0
176
     1
 90
       50
176
     1
 62
   256
176
     0
 40
1.0
176
     0
 90
        2
176
     1
  1
strokes_ogs.tif
176
     1
290
     0
176
     1
 40
1.0
176
     1
 40
1.0
176
     1
  0
VISUALSTYLE
  5
36
102
{ACAD_REACTORS
330
2A
102
}
330
2A
100
AcDbVisualStyle
  2
Brighten
 70
    12
177
     3
291
     1
 70
    58
 90
        2
176
     1
 90
        2
176
     1
 90
        0
176
     1
 90
        0
176
     1
 40
0.6
176
     1
 40
30.0
176
     1
 62
     7
420
 16777215
176
     1
 90
        1
176
     1
 90
        4
176
     1
 62
     7
176
     1
 62
   257
176
     1
 90
        1
176
     1
 90
        1
176
     1
 40
1.0
176
     1
 90
        8
176
     1
 62
     7
176
     1
 40
1.0
176
     1
 90
        1
176
     1
 90
        6
176
     1
 90
        2
176
     1
 62
     7
176
     1
 90
        5
176
     1
 90
        0
176
     1
 90
        0
176
     1
290
     0
176
     1
 90
        1
176
     1
 40
50.0
176
     1
 90
        0
176
     1
290
     0
176
     1
290
     1
176
     1
290
     1
176
     1
290
     0
176
     1
290
     0
176
     1
290
     0
176
     1
290
     0
176
     1
290
     0
176
     1
290
     0
176
     1
 90
       50
176
     1
 40
0.0
176
     1
 40
1.0
176
     1
 90
        0
176
     1
 62
    18
420
        0
176
     1
 90
       50
176
     1
 90
        3
176
     1
 62
     5
420
      255
176
     1
290
     0
176
     1
 90
       50
176
     1
 90
       50
176
     1
 90
       50
176
     1
290
     0
176
     1
 90
       50
176
     1
 62
   256
176
     0
 40
1.0
176
     0
 90
        2
176
     1
  1
strokes_ogs.tif
176
     1
290
     0
176
     1
 40
1.0
176
     1
 40
1.0
176
     1
  0
VISUALSTYLE
  5
3A
102
{ACAD_REACTORS
330
2A
102
}
330
2A
100
AcDbVisualStyle
  2
ColorChange
 70
    16
177
     3
291
     1
 70
    58
 90
        2
176
     1
 90
        2
176
     1
 90
        3
176
     1
 90
        0
176
     1
 40
0.6
176
     1
 40
30.0
176
     1
 62
     8
420
  8421504
176
     1
 90
        1
176
     1
 90
        4
176
     1
 62
     7
176
     1
 62
   257
176
     1
 90
        1
176
     1
 90
        1
176
     1
 40
1.0
176
     1
 90
        8
176
     1
 62
     8
420
  8421504
176
     1
 40
1.0
176
     1
 90
        1
176
     1
 90
        6
176
     1
 90
        2
176
     1
 62
     7
176
     1
 90
        5
176
     1
 90
        0
176
     1
 90
        0
176
     1
290
     0
176
     1
 90
        1
176
     1
 40
0.0
176
     1
 90
        0
176
     1
290
     0
176
     1
290
     1
176
     1
290
     1
176
     1
290
     0
176
     1
290
     0
176
     1
290
     0
176
     1
290
     0
176
     1
290
     0
176
     1
290
     0
176
     1
 90
       50
176
     1
 40
0.0
176
     1
 40
1.0
176
     1
 90
        0
176
     1
 62
    18
420
        0
176
     1
 90
       50
176
     1
 90
        3
176
     1
 62
     5
420
      255
176
     1
290
     0
176
     1
 90
       50
176
     1
 90
       50
176
     1
 90
       50
176
     1
290
     0
176
     1
 90
       50
176
     1
 62
   256
176
     0
 40
1.0
176
     0
 90
        2
176
     1
  1
strokes_ogs.tif
176
     1
290
     0
176
     1
 40
1.0
176
     1
 40
1.0
176
     1
  0
VISUALSTYLE
  5
34
102
{ACAD_REACTORS
330
2A
102
}
330
2A
100
AcDbVisualStyle
  2
Conceptual
 70
     9
177
     3
291
     0
 70
    58
 90
        3
176
     1
 90
        2
176
     1
 90
        0
176
     1
 90
        0
176
     1
 40
0.6
176
     1
 40
30.0
176
     1
 62
     7
420
 16777215
176
     1
 90
        2
176
     1
 90
        2
176
     1
 62
     7
176
     1
 62
   257
176
     1
 90
        1
176
     1
 90
        1
176
     1
 40
179.0
176
     1
 90
        8
176
     1
 62
     7
176
     1
 40
1.0
176
     1
 90
        1
176
     1
 90
        6
176
     1
 90
        2
176
     1
 62
     7
176
     1
 90
        3
176
     1
 90
        0
176
     1
 90
        0
176
     1
290
     0
176
     1
 90
        1
176
     1
 40
0.0
176
     1
 90
        0
176
     1
290
     0
176
     1
290
     1
176
     1
290
     1
176
     1
290
     0
176
     1
290
     0
176
     1
290
     0
176
     1
290
     0
176
     1
290
     0
176
     1
290
     0
176
     1
 90
       50
176
     1
 40
0.0
176
     1
 40
1.0
176
     1
 90
        0
176
     1
 62
    18
420
        0
176
     1
 90
       50
176
     1
 90
        3
176
     1
 62
     5
420
      255
176
     1
290
     0
176
     1
 90
       50
176
     1
 90
       50
176
     1
 90
       50
176
     1
290
     0
176
     1
 90
       50
176
     1
 62
   256
176
     0
 40
1.0
176
     0
 90
        2
176
     1
  1
strokes_ogs.tif
176
     1
290
     0
176
     1
 40
1.0
176
     1
 40
1.0
176
     1
  0
VISUALSTYLE
  5
35
102
{ACAD_REACTORS
330
2A
102
}
330
2A
100
AcDbVisualStyle
  2
Dim
 70
    11
177
     3
291
     1
 70
    58
 90
        2
176
     1
 90
        2
176
     1
 90
        0
176
     1
 90
        0
176
     1
 40
0.6
176
     1
 40
30.0
176
     1
 62
     7
420
 16777215
176
     1
 90
        1
176
     1
 90
        4
176
     1
 62
     7
176
     1
 62
   257
176
     1
 90
        1
176
     1
 90
        1
176
     1
 40
1.0
176
     1
 90
        8
176
     1
 62
     7
176
     1
 40
1.0
176
     1
 90
        1
176
     1
 90
        6
176
     1
 90
        2
176
     1
 62
     7
176
     1
 90
        5
176
     1
 90
        0
176
     1
 90
        0
176
     1
290
     0
176
     1
 90
        1
176
     1
 40
-50.0
176
     1
 90
        0
176
     1
290
     0
176
     1
290
     1
176
     1
290
     1
176
     1
290
     0
176
     1
290
     0
176
     1
290
     0
176
     1
290
     0
176
     1
290
     0
176
     1
290
     0
176
     1
 90
       50
176
     1
 40
0.0
176
     1
 40
1.0
176
     1
 90
        0
176
     1
 62
    18
420
        0
176
     1
 90
       50
176
     1
 90
        3
176
     1
 62
     5
420
      255
176
     1
290
     0
176
     1
 90
       50
176
     1
 90
       50
176
     1
 90
       50
176
     1
290
     0
176
     1
 90
       50
176
     1
 62
   256
176
     0
 40
1.0
176
     0
 90
        2
176
     1
  1
strokes_ogs.tif
176
     1
290
     0
176
     1
 40
1.0
176
     1
 40
1.0
176
     1
  0
VISUALSTYLE
  5
3D
102
{ACAD_REACTORS
330
2A
102
}
330
2A
100
AcDbVisualStyle
  2
EdgeColorOff
 70
    22
177
     3
291
     1
 70
    58
 90
        2
176
     0
 90
        2
176
     0
 90
        0
176
     0
 90
        0
176
     0
 40
0.6
176
     0
 40
30.0
176
     0
 62
     7
420
 16777215
176
     0
 90
        1
176
     0
 90
        4
176
     0
 62
     7
176
     0
 62
   257
176
     0
 90
        1
176
     0
 90
        1
176
     0
 40
1.0
176
     0
 90
        8
176
     2
 62
     7
176
     0
 40
1.0
176
     0
 90
        1
176
     0
 90
        6
176
     0
 90
        2
176
     0
 62
     7
176
     0
 90
        5
176
     0
 90
        0
176
     0
 90
        0
176
     0
290
     0
176
     0
 90
        1
176
     0
 40
0.0
176
     0
 90
        0
176
     0
290
     0
176
     0
290
     1
176
     0
290
     1
176
     0
290
     0
176
     0
290
     0
176
     0
290
     0
176
     0
290
     0
176
     0
290
     0
176
     0
290
     0
176
     0
 90
       50
176
     0
 40
0.0
176
     0
 40
1.0
176
     0
 90
        0
176
     0
 62
    18
420
        0
176
     0
 90
       50
176
     0
 90
        3
176
     0
 62
     5
420
      255
176
     0
290
     0
176
     0
 90
       50
176
     0
 90
       50
176
     0
 90
       50
176
     0
290
     0
176
     0
 90
       50
176
     0
 62
   256
176
     0
 40
1.0
176
     0
 90
        2
176
     0
  1
strokes_ogs.tif
176
     0
290
     0
176
     0
 40
1.0
176
     0
 40
1.0
176
     0
  0
VISUALSTYLE
  5
39
102
{ACAD_REACTORS
330
2A
102
}
330
2A
100
AcDbVisualStyle
  2
Facepattern
 70
    15
177
     3
291
     1
 70
    58
 90
        2
176
     1
 90
        2
176
     1
 90
        0
176
     1
 90
        0
176
     1
 40
0.6
176
     1
 40
30.0
176
     1
 62
     7
420
 16777215
176
     1
 90
        1
176
     1
 90
        4
176
     1
 62
     7
176
     1
 62
   257
176
     1
 90
        1
176
     1
 90
        1
176
     1
 40
1.0
176
     1
 90
        8
176
     1
 62
     7
176
     1
 40
1.0
176
     1
 90
        1
176
     1
 90
        6
176
     1
 90
        2
176
     1
 62
     7
176
     1
 90
        5
176
     1
 90
        0
176
     1
 90
        0
176
     1
290
     0
176
     1
 90
        1
176
     1
 40
0.0
176
     1
 90
        0
176
     1
290
     0
176
     1
290
     1
176
     1
290
     1
176
     1
290
     0
176
     1
290
     0
176
     1
290
     0
176
     1
290
     0
176
     1
290
     0
176
     1
290
     0
176
     1
 90
       50
176
     1
 40
0.0
176
     1
 40
1.0
176
     1
 90
        0
176
     1
 62
    18
420
        0
176
     1
 90
       50
176
     1
 90
        3
176
     1
 62
     5
420
      255
176
     1
290
     0
176
     1
 90
       50
176
     1
 90
       50
176
     1
 90
       50
176
     1
290
     0
176
     1
 90
       50
176
     1
 62
   256
176
     0
 40
1.0
176
     0
 90
        2
176
     1
  1
strokes_ogs.tif
176
     1
290
     0
176
     1
 40
1.0
176
     1
 40
1.0
176
     1
  0
VISUALSTYLE
  5
2B
102
{ACAD_REACTORS
330
2A
102
}
330
2A
100
AcDbVisualStyle
  2
Flat
 70
     0
177
     3
291
     1
 70
    58
 90
        2
176
     1
 90
        1
176
     1
 90
        1
176
     1
 90
        2
176
     1
 40
0.6
176
     1
 40
30.0
176
     1
 62
     7
420
 16777215
176
     1
 90
        0
176
     1
 90
        0
176
     1
 62
     7
176
     1
 62
   257
176
     1
 90
        1
176
     1
 90
        1
176
     1
 40
1.0
176
     1
 90
        8
176
     1
 62
     7
176
     1
 40
1.0
176
     1
 90
        1
176
     1
 90
        6
176
     1
 90
        2
176
     1
 62
     7
176
     1
 90
        5
176
     1
 90
        0
176
     1
 90
        0
176
     1
290
     0
176
     1
 90
       13
176
     1
 40
0.0
176
     1
 90
        0
176
     1
290
     0
176
     1
290
     1
176
     1
290
     1
176
     1
290
     0
176
     1
290
     0
176
     1
290
     0
176
     1
290
     0
176
     1
290
     0
176
     1
290
     0
176
     1
 90
       50
176
     1
 40
0.0
176
     1
 40
1.0
176
     1
 90
        0
176
     1
 62
    18
420
        0
176
     1
 90
       50
176
     1
 90
        3
176
     1
 62
     5
420
      255
176
     1
290
     0
176
     1
 90
       50
176
     1
 90
       50
176
     1
 90
       50
176
     1
290
     0
176
     1
 90
       50
176
     1
 62
   256
176
     0
 40
1.0
176
     0
 90
        2
176
     1
  1
strokes_ogs.tif
176
     1
290
     0
176
     1
 40
1.0
176
     1
 40
1.0
176
     1
  0
VISUALSTYLE
  5
2C
102
{ACAD_REACTORS
330
2A
102
}
330
2A
100
AcDbVisualStyle
  2
FlatWithEdges
 70
     1
177
     3
291
     1
 70
    58
 90
        2
176
     1
 90
        1
176
     1
 90
        1
176
     1
 90
        2
176
     1
 40
0.6
176
     1
 40
30.0
176
     1
 62
     7
420
 16777215
176
     1
 90
        1
176
     1
 90
        0
176
     1
 62
     7
176
     1
 62
   257
176
     1
 90
        1
176
     1
 90
        1
176
     1
 40
1.0
176
     1
 90
        0
176
     1
 62
   257
176
     1
 40
1.0
176
     1
 90
        1
176
     1
 90
        6
176
     1
 90
        2
176
     1
 62
     7
176
     1
 90
        5
176
     1
 90
        0
176
     1
 90
        0
176
     1
290
     0
176
     1
 90
       13
176
     1
 40
0.0
176
     1
 90
        0
176
     1
290
     0
176
     1
290
     1
176
     1
290
     1
176
     1
290
     0
176
     1
290
     0
176
     1
290
     0
176
     1
290
     0
176
     1
290
     0
176
     1
290
     0
176
     1
 90
       50
176
     1
 40
0.0
176
     1
 40
1.0
176
     1
 90
        0
176
     1
 62
    18
420
        0
176
     1
 90
       50
176
     1
 90
        3
176
     1
 62
     5
420
      255
176
     1
290
     0
176
     1
 90
       50
176
     1
 90
       50
176
     1
 90
       50
176
     1
290
     0
176
     1
 90
       50
176
     1
 62
   256
176
     0
 40
1.0
176
     0
 90
        2
176
     1
  1
strokes_ogs.tif
176
     1
290
     0
176
     1
 40
1.0
176
     1
 40
1.0
176
     1
  0
VISUALSTYLE
  5
2D
102
{ACAD_REACTORS
330
2A
102
}
330
2A
100
AcDbVisualStyle
  2
Gouraud
 70
     2
177
     3
291
     1
 70
    58
 90
        2
176
     1
 90
        2
176
     1
 90
        1
176
     1
 90
        2
176
     1
 40
0.6
176
     1
 40
30.0
176
     1
 62
     7
420
 16777215
176
     1
 90
        0
176
     1
 90
        0
176
     1
 62
     7
176
     1
 62
   257
176
     1
 90
        1
176
     1
 90
        1
176
     1
 40
1.0
176
     1
 90
        0
176
     1
 62
     7
176
     1
 40
1.0
176
     1
 90
        1
176
     1
 90
        6
176
     1
 90
        2
176
     1
 62
     7
176
     1
 90
        5
176
     1
 90
        0
176
     1
 90
        0
176
     1
290
     0
176
     1
 90
       13
176
     1
 40
0.0
176
     1
 90
        0
176
     1
290
     0
176
     1
290
     1
176
     1
290
     1
176
     1
290
     0
176
     1
290
     0
176
     1
290
     0
176
     1
290
     0
176
     1
290
     0
176
     1
290
     0
176
     1
 90
       50
176
     1
 40
0.0
176
     1
 40
1.0
176
     1
 90
        0
176
     1
 62
    18
420
        0
176
     1
 90
       50
176
     1
 90
        3
176
     1
 62
     5
420
      255
176
     1
290
     0
176
     1
 90
       50
176
     1
 90
       50
176
     1
 90
       50
176
     1
290
     0
176
     1
 90
       50
176
     1
 62
   256
176
     0
 40
1.0
176
     0
 90
        2
176
     1
  1
strokes_ogs.tif
176
     1
290
     0
176
     1
 40
1.0
176
     1
 40
1.0
176
     1
  0
VISUALSTYLE
  5
2E
102
{ACAD_REACTORS
330
2A
102
}
330
2A
100
AcDbVisualStyle
  2
GouraudWithEdges
 70
     3
177
     3
291
     1
 70
    58
 90
        2
176
     1
 90
        2
176
     1
 90
        1
176
     1
 90
        2
176
     1
 40
0.6
176
     1
 40
30.0
176
     1
 62
     7
420
 16777215
176
     1
 90
        1
176
     1
 90
        0
176
     1
 62
     7
176
     1
 62
   257
176
     1
 90
        1
176
     1
 90
        1
176
     1
 40
1.0
176
     1
 90
        0
176
     1
 62
   257
176
     1
 40
1.0
176
     1
 90
        1
176
     1
 90
        6
176
     1
 90
        2
176
     1
 62
     7
176
     1
 90
        5
176
     1
 90
        0
176
     1
 90
        0
176
     1
290
     0
176
     1
 90
       13
176
     1
 40
0.0
176
     1
 90
        0
176
     1
290
     0
176
     1
290
     1
176
     1
290
     1
176
     1
290
     0
176
     1
290
     0
176
     1
290
     0
176
     1
290
     0
176
     1
290
     0
176
     1
290
     0
176
     1
 90
       50
176
     1
 40
0.0
176
     1
 40
1.0
176
     1
 90
        0
176
     1
 62
    18
420
        0
176
     1
 90
       50
176
     1
 90
        3
176
     1
 62
     5
420
      255
176
     1
290
     0
176
     1
 90
       50
176
     1
 90
       50
176
     1
 90
       50
176
     1
290
     0
176
     1
 90
       50
176
     1
 62
   256
176
     0
 40
1.0
176
     0
 90
        2
176
     1
  1
strokes_ogs.tif
176
     1
290
     0
176
     1
 40
1.0
176
     1
 40
1.0
176
     1
  0
VISUALSTYLE
  5
31
102
{ACAD_REACTORS
330
2A
102
}
330
2A
100
AcDbVisualStyle
  2
Hidden
 70
     6
177
     3
291
     0
 70
    58
 90
        1
176
     1
 90
        2
176
     1
 90
        2
176
     1
 90
        0
176
     1
 40
0.6
176
     1
 40
30.0
176
     1
 62
     7
420
 16777215
176
     1
 90
        2
176
     1
 90
        2
176
     1
 62
     7
176
     1
 62
   257
176
     1
 90
        2
176
     1
 90
        1
176
     1
 40
40.0
176
     1
 90
        0
176
     1
 62
   257
176
     1
 40
1.0
176
     1
 90
        1
176
     1
 90
        6
176
     1
 90
        2
176
     1
 62
     7
176
     1
 90
        3
176
     1
 90
        0
176
     1
 90
        0
176
     1
290
     0
176
     1
 90
        1
176
     1
 40
0.0
176
     1
 90
        0
176
     1
290
     0
176
     1
290
     1
176
     1
290
     1
176
     1
290
     0
176
     1
290
     0
176
     1
290
     0
176
     1
290
     0
176
     1
290
     0
176
     1
290
     0
176
     1
 90
       50
176
     1
 40
0.0
176
     1
 40
1.0
176
     1
 90
        0
176
     1
 62
    18
420
        0
176
     1
 90
       50
176
     1
 90
        3
176
     1
 62
     5
420
      255
176
     1
290
     0
176
     1
 90
       50
176
     1
 90
       50
176
     1
 90
       50
176
     1
290
     0
176
     1
 90
       50
176
     1
 62
   256
176
     0
 40
1.0
176
     0
 90
        2
176
     1
  1
strokes_ogs.tif
176
     1
290
     0
176
     1
 40
1.0
176
     1
 40
1.0
176
     1
  0
VISUALSTYLE
  5
3B
102
{ACAD_REACTORS
330
2A
102
}
330
2A
100
AcDbVisualStyle
  2
JitterOff
 70
    20
177
     3
291
     1
 70
    58
 90
        2
176
     0
 90
        2
176
     0
 90
        0
176
     0
 90
        0
176
     0
 40
0.6
176
     0
 40
30.0
176
     0
 62
     7
420
 16777215
176
     0
 90
        1
176
     0
 90
        4
176
     0
 62
     7
176
     0
 62
   257
176
     0
 90
        1
176
     0
 90
        1
176
     0
 40
1.0
176
     0
 90
       10
176
     2
 62
     7
176
     0
 40
1.0
176
     0
 90
        1
176
     0
 90
        6
176
     0
 90
        2
176
     0
 62
     7
176
     0
 90
        5
176
     0
 90
        0
176
     0
 90
        0
176
     0
290
     0
176
     0
 90
        1
176
     0
 40
0.0
176
     0
 90
        0
176
     0
290
     0
176
     0
290
     1
176
     0
290
     1
176
     0
290
     0
176
     0
290
     0
176
     0
290
     0
176
     0
290
     0
176
     0
290
     0
176
     0
290
     0
176
     0
 90
       50
176
     0
 40
0.0
176
     0
 40
1.0
176
     0
 90
        0
176
     0
 62
    18
420
        0
176
     0
 90
       50
176
     0
 90
        3
176
     0
 62
     5
420
      255
176
     0
290
     0
176
     0
 90
       50
176
     0
 90
       50
176
     0
 90
       50
176
     0
290
     0
176
     0
 90
       50
176
     0
 62
   256
176
     0
 40
1.0
176
     0
 90
        2
176
     0
  1
strokes_ogs.tif
176
     0
290
     0
176
     0
 40
1.0
176
     0
 40
1.0
176
     0
  0
VISUALSTYLE
  5
38
102
{ACAD_REACTORS
330
2A
102
}
330
2A
100
AcDbVisualStyle
  2
Linepattern
 70
    14
177
     3
291
     1
 70
    58
 90
        2
176
     1
 90
        2
176
     1
 90
        0
176
     1
 90
        0
176
     1
 40
0.6
176
     1
 40
30.0
176
     1
 62
     7
420
 16777215
176
     1
 90
        1
176
     1
 90
        4
176
     1
 62
     7
176
     1
 62
   257
176
     1
 90
        7
176
     1
 90
        7
176
     1
 40
1.0
176
     1
 90
        8
176
     1
 62
     7
176
     1
 40
1.0
176
     1
 90
        1
176
     1
 90
        6
176
     1
 90
        2
176
     1
 62
     7
176
     1
 90
        5
176
     1
 90
        0
176
     1
 90
        0
176
     1
290
     0
176
     1
 90
        1
176
     1
 40
0.0
176
     1
 90
        0
176
     1
290
     0
176
     1
290
     1
176
     1
290
     1
176
     1
290
     0
176
     1
290
     0
176
     1
290
     0
176
     1
290
     0
176
     1
290
     0
176
     1
290
     0
176
     1
 90
       50
176
     1
 40
0.0
176
     1
 40
1.0
176
     1
 90
        0
176
     1
 62
    18
420
        0
176
     1
 90
       50
176
     1
 90
        3
176
     1
 62
     5
420
      255
176
     1
290
     0
176
     1
 90
       50
176
     1
 90
       50
176
     1
 90
       50
176
     1
290
     0
176
     1
 90
       50
176
     1
 62
   256
176
     0
 40
1.0
176
     0
 90
        2
176
     1
  1
strokes_ogs.tif
176
     1
290
     0
176
     1
 40
1.0
176
     1
 40
1.0
176
     1
  0
VISUALSTYLE
  5
3C
102
{ACAD_REACTORS
330
2A
102
}
330
2A
100
AcDbVisualStyle
  2
OverhangOff
 70
    21
177
     3
291
     1
 70
    58
 90
        2
176
     0
 90
        2
176
     0
 90
        0
176
     0
 90
        0
176
     0
 40
0.6
176
     0
 40
30.0
176
     0
 62
     7
420
 16777215
176
     0
 90
        1
176
     0
 90
        4
176
     0
 62
     7
176
     0
 62
   257
176
     0
 90
        1
176
     0
 90
        1
176
     0
 40
1.0
176
     0
 90
        9
176
     2
 62
     7
176
     0
 40
1.0
176
     0
 90
        1
176
     0
 90
        6
176
     0
 90
        2
176
     0
 62
     7
176
     0
 90
        5
176
     0
 90
        0
176
     0
 90
        0
176
     0
290
     0
176
     0
 90
        1
176
     0
 40
0.0
176
     0
 90
        0
176
     0
290
     0
176
     0
290
     1
176
     0
290
     1
176
     0
290
     0
176
     0
290
     0
176
     0
290
     0
176
     0
290
     0
176
     0
290
     0
176
     0
290
     0
176
     0
 90
       50
176
     0
 40
0.0
176
     0
 40
1.0
176
     0
 90
        0
176
     0
 62
    18
420
        0
176
     0
 90
       50
176
     0
 90
        3
176
     0
 62
     5
420
      255
176
     0
290
     0
176
     0
 90
       50
176
     0
 90
       50
176
     0
 90
       50
176
     0
290
     0
176
     0
 90
       50
176
     0
 62
   256
176
     0
 40
1.0
176
     0
 90
        2
176
     0
  1
strokes_ogs.tif
176
     0
290
     0
176
     0
 40
1.0
176
     0
 40
1.0
176
     0
  0
VISUALSTYLE
  5
33
102
{ACAD_REACTORS
330
2A
102
}
330
2A
100
AcDbVisualStyle
  2
Realistic
 70
     8
177
     3
291
     0
 70
    58
 90
        2
176
     1
 90
        3
176
     1
 90
        0
176
     1
 90
        2
176
     1
 40
0.6
176
     1
 40
30.0
176
     1
 62
     7
420
 16777215
176
     1
 90
        0
176
     1
 90
        0
176
     1
 62
     7
176
     1
 62
   257
176
     1
 90
        1
176
     1
 90
        1
176
     1
 40
1.0
176
     1
 90
        8
176
     1
 62
   257
176
     1
 40
1.0
176
     1
 90
        1
176
     1
 90
        6
176
     1
 90
        2
176
     1
 62
     7
176
     1
 90
        3
176
     1
 90
        0
176
     1
 90
        0
176
     1
290
     0
176
     1
 90
       13
176
     1
 40
0.0
176
     1
 90
        0
176
     1
290
     0
176
     1
290
     1
176
     1
290
     1
176
     1
290
     0
176
     1
290
     0
176
     1
290
     0
176
     1
290
     0
176
     1
290
     0
176
     1
290
     0
176
     1
 90
       50
176
     1
 40
0.0
176
     1
 40
1.0
176
     1
 90
        0
176
     1
 62
    18
420
        0
176
     1
 90
       50
176
     1
 90
        3
176
     1
 62
     5
420
      255
176
     1
290
     0
176
     1
 90
       50
176
     1
 90
       50
176
     1
 90
       50
176
     1
290
     0
176
     1
 90
       50
176
     1
 62
   256
176
     0
 40
1.0
176
     0
 90
        2
176
     1
  1
strokes_ogs.tif
176
     1
290
     0
176
     1
 40
1.0
176
     1
 40
1.0
176
     1
  0
VISUALSTYLE
  5
42
102
{ACAD_REACTORS
330
2A
102
}
330
2A
100
AcDbVisualStyle
  2
Shaded
 70
    27
177
     3
291
     0
 70
    58
 90
        2
176
     1
 90
        2
176
     1
 90
        1
176
     1
 90
        2
176
     1
 40
0.6
176
     1
 40
30.0
176
     1
 62
     7
420
 16777215
176
     1
 90
        0
176
     1
 90
        4
176
     1
 62
     7
176
     1
 62
   257
176
     1
 90
        1
176
     1
 90
        1
176
     1
 40
1.0
176
     1
 90
        8
176
     1
 62
   257
176
     1
 40
1.0
176
     1
 90
        1
176
     1
 90
        6
176
     1
 90
        2
176
     1
 62
     8
420
  7895160
176
     1
 90
        3
176
     1
 90
        0
176
     1
 90
        0
176
     1
290
     0
176
     1
 90
        5
176
     1
 40
0.0
176
     1
 90
        0
176
     1
290
     0
176
     1
290
     1
176
     1
290
     1
176
     1
290
     0
176
     1
290
     0
176
     1
290
     0
176
     1
290
     0
176
     1
290
     0
176
     1
290
     0
176
     1
 90
       50
176
     1
 40
0.0
176
     1
 40
1.0
176
     1
 90
        0
176
     1
 62
    18
420
        0
176
     1
 90
       50
176
     1
 90
        3
176
     1
 62
     5
420
      255
176
     1
290
     0
176
     1
 90
       50
176
     1
 90
       50
176
     1
 90
       50
176
     1
290
     0
176
     1
 90
       50
176
     1
 62
   256
176
     0
 40
1.0
176
     0
 90
        2
176
     1
  1
strokes_ogs.tif
176
     1
290
     0
176
     1
 40
1.0
176
     1
 40
1.0
176
     1
  0
VISUALSTYLE
  5
41
102
{ACAD_REACTORS
330
2A
102
}
330
2A
100
AcDbVisualStyle
  2
Shaded with edges
 70
    26
177
     3
291
     0
 70
    58
 90
        2
176
     1
 90
        2
176
     1
 90
        1
176
     1
 90
        2
176
     1
 40
0.6
176
     1
 40
30.0
176
     1
 62
     7
420
 16777215
176
     1
 90
        1
176
     1
 90
       10
176
     1
 62
     7
176
     1
 62
   257
176
     1
 90
        2
176
     1
 90
        1
176
     1
 40
1.0
176
     1
 90
        8
176
     1
 62
   257
176
     1
 40
1.0
176
     1
 90
        1
176
     1
 90
        6
176
     1
 90
        2
176
     1
 62
     7
176
     1
 90
        3
176
     1
 90
        0
176
     1
 90
        0
176
     1
290
     0
176
     1
 90
        5
176
     1
 40
0.0
176
     1
 90
        0
176
     1
290
     0
176
     1
290
     1
176
     1
290
     1
176
     1
290
     0
176
     1
290
     0
176
     1
290
     0
176
     1
290
     0
176
     1
290
     0
176
     1
290
     0
176
     1
 90
       50
176
     1
 40
0.0
176
     1
 40
1.0
176
     1
 90
        0
176
     1
 62
    18
420
        0
176
     1
 90
       50
176
     1
 90
        3
176
     1
 62
     5
420
      255
176
     1
290
     0
176
     1
 90
       50
176
     1
 90
       50
176
     1
 90
       50
176
     1
290
     0
176
     1
 90
       50
176
     1
 62
   256
176
     0
 40
1.0
176
     0
 90
        2
176
     1
  1
strokes_ogs.tif
176
     1
290
     0
176
     1
 40
1.0
176
     1
 40
1.0
176
     1
  0
VISUALSTYLE
  5
3E
102
{ACAD_REACTORS
330
2A
102
}
330
2A
100
AcDbVisualStyle
  2
Shades of Gray
 70
    23
177
     3
291
     0
 70
    58
 90
        2
176
     1
 90
        2
176
     1
 90
        3
176
     1
 90
        0
176
     1
 40
0.6
176
     1
 40
30.0
176
     1
 62
     7
420
 16777215
176
     1
 90
        2
176
     1
 90
        2
176
     1
 62
     7
176
     1
 62
     7
176
     1
 90
        1
176
     1
 90
        1
176
     1
 40
40.0
176
     1
 90
        8
176
     1
 62
     7
176
     1
 40
1.0
176
     1
 90
        1
176
     1
 90
        6
176
     1
 90
        2
176
     1
 62
     7
176
     1
 90
        3
176
     1
 90
        0
176
     1
 90
        0
176
     1
290
     0
176
     1
 90
        1
176
     1
 40
0.0
176
     1
 90
        0
176
     1
290
     0
176
     1
290
     1
176
     1
290
     1
176
     1
290
     0
176
     1
290
     0
176
     1
290
     0
176
     1
290
     0
176
     1
290
     0
176
     1
290
     0
176
     1
 90
       50
176
     1
 40
0.0
176
     1
 40
1.0
176
     1
 90
        0
176
     1
 62
    18
420
        0
176
     1
 90
       50
176
     1
 90
        3
176
     1
 62
     5
420
      255
176
     1
290
     0
176
     1
 90
       50
176
     1
 90
       50
176
     1
 90
       50
176
     1
290
     0
176
     1
 90
       50
176
     1
 62
   256
176
     0
 40
1.0
176
     0
 90
        2
176
     1
  1
strokes_ogs.tif
176
     1
290
     0
176
     1
 40
1.0
176
     1
 40
1.0
176
     1
  0
VISUALSTYLE
  5
3F
102
{ACAD_REACTORS
330
2A
102
}
330
2A
100
AcDbVisualStyle
  2
Sketchy
 70
    24
177
     3
291
     0
 70
    58
 90
        1
176
     1
 90
        2
176
     1
 90
        2
176
     1
 90
        0
176
     1
 40
0.6
176
     1
 40
30.0
176
     1
 62
     7
420
 16777215
176
     1
 90
        2
176
     1
 90
        2
176
     1
 62
     7
176
     1
 62
     7
176
     1
 90
        1
176
     1
 90
        1
176
     1
 40
40.0
176
     1
 90
       11
176
     1
 62
     7
176
     1
 40
1.0
176
     1
 90
        1
176
     1
 90
        6
176
     1
 90
        2
176
     1
 62
     7
176
     1
 90
        6
176
     1
 90
        0
176
     1
 90
        0
176
     1
290
     0
176
     1
 90
        1
176
     1
 40
0.0
176
     1
 90
        0
176
     1
290
     0
176
     1
290
     1
176
     1
290
     1
176
     1
290
     0
176
     1
290
     0
176
     1
290
     0
176
     1
290
     0
176
     1
290
     0
176
     1
290
     0
176
     1
 90
       50
176
     1
 40
0.0
176
     1
 40
1.0
176
     1
 90
        0
176
     1
 62
    18
420
        0
176
     1
 90
       50
176
     1
 90
        3
176
     1
 62
     5
420
      255
176
     1
290
     0
176
     1
 90
       50
176
     1
 90
       50
176
     1
 90
       50
176
     1
290
     0
176
     1
 90
       50
176
     1
 62
   256
176
     0
 40
1.0
176
     0
 90
        2
176
     1
  1
strokes_ogs.tif
176
     1
290
     0
176
     1
 40
1.0
176
     1
 40
1.0
176
     1
  0
VISUALSTYLE
  5
37
102
{ACAD_REACTORS
330
2A
102
}
330
2A
100
AcDbVisualStyle
  2
Thicken
 70
    13
177
     3
291
     1
 70
    58
 90
        2
176
     1
 90
        2
176
     1
 90
        0
176
     1
 90
        0
176
     1
 40
0.6
176
     1
 40
30.0
176
     1
 62
     7
420
 16777215
176
     1
 90
        1
176
     1
 90
        4
176
     1
 62
     7
176
     1
 62
   257
176
     1
 90
        1
176
     1
 90
        1
176
     1
 40
1.0
176
     1
 90
       12
176
     1
 62
     7
176
     1
 40
1.0
176
     1
 90
        1
176
     1
 90
        6
176
     1
 90
        2
176
     1
 62
     7
176
     1
 90
        5
176
     1
 90
        0
176
     1
 90
        0
176
     1
290
     0
176
     1
 90
        1
176
     1
 40
0.0
176
     1
 90
        0
176
     1
290
     0
176
     1
290
     1
176
     1
290
     1
176
     1
290
     0
176
     1
290
     0
176
     1
290
     0
176
     1
290
     0
176
     1
290
     0
176
     1
290
     0
176
     1
 90
       50
176
     1
 40
0.0
176
     1
 40
1.0
176
     1
 90
        0
176
     1
 62
    18
420
        0
176
     1
 90
       50
176
     1
 90
        3
176
     1
 62
     5
420
      255
176
     1
290
     0
176
     1
 90
       50
176
     1
 90
       50
176
     1
 90
       50
176
     1
290
     0
176
     1
 90
       50
176
     1
 62
   256
176
     0
 40
1.0
176
     0
 90
        2
176
     1
  1
strokes_ogs.tif
176
     1
290
     0
176
     1
 40
1.0
176
     1
 40
1.0
176
     1
  0
VISUALSTYLE
  5
30
102
{ACAD_REACTORS
330
2A
102
}
330
2A
100
AcDbVisualStyle
  2
Wireframe
 70
     5
177
     3
291
     0
 70
    58
 90
        0
176
     1
 90
        2
176
     1
 90
        0
176
     1
 90
        0
176
     1
 40
0.6
176
     1
 40
30.0
176
     1
 62
     7
420
 16777215
176
     1
 90
        1
176
     1
 90
        4
176
     1
 62
     7
176
     1
 62
   257
176
     1
 90
        1
176
     1
 90
        1
176
     1
 40
1.0
176
     1
 90
        0
176
     1
 62
   257
176
     1
 40
1.0
176
     1
 90
        1
176
     1
 90
        6
176
     1
 90
        2
176
     1
 62
     7
176
     1
 90
        3
176
     1
 90
        0
176
     1
 90
        0
176
     1
290
     0
176
     1
 90
        1
176
     1
 40
0.0
176
     1
 90
        0
176
     1
290
     0
176
     1
290
     1
176
     1
290
     1
176
     1
290
     0
176
     1
290
     0
176
     1
290
     0
176
     1
290
     0
176
     1
290
     0
176
     1
290
     0
176
     1
 90
       50
176
     1
 40
0.0
176
     1
 40
1.0
176
     1
 90
        0
176
     1
 62
    18
420
        0
176
     1
 90
       50
176
     1
 90
        3
176
     1
 62
     5
420
      255
176
     1
290
     0
176
     1
 90
       50
176
     1
 90
       50
176
     1
 90
       50
176
     1
290
     0
176
     1
 90
       50
176
     1
 62
   256
176
     0
 40
1.0
176
     0
 90
        2
176
     1
  1
strokes_ogs.tif
176
     1
290
     0
176
     1
 40
1.0
176
     1
 40
1.0
176
     1
  0
VISUALSTYLE
  5
40
102
{ACAD_REACTORS
330
2A
102
}
330
2A
100
AcDbVisualStyle
  2
X-Ray
 70
    25
177
     3
291
     0
 70
    58
 90
        2
176
     1
 90
        2
176
     1
 90
        1
176
     1
 90
        1
176
     1
 40
0.5
176
     1
 40
30.0
176
     1
 62
     7
420
 16777215
176
     1
 90
        1
176
     1
 90
        0
176
     1
 62
     7
176
     1
 62
   257
176
     1
 90
        1
176
     1
 90
        1
176
     1
 40
1.0
176
     1
 90
        8
176
     1
 62
     7
176
     1
 40
1.0
176
     1
 90
        1
176
     1
 90
        6
176
     1
 90
        2
176
     1
 62
     7
176
     1
 90
        3
176
     1
 90
        0
176
     1
 90
        0
176
     1
290
     0
176
     1
 90
       13
176
     1
 40
0.0
176
     1
 90
        0
176
     1
290
     0
176
     1
290
     1
176
     1
290
     1
176
     1
290
     0
176
     1
290
     0
176
     1
290
     0
176
     1
290
     0
176
     1
290
     0
176
     1
290
     0
176
     1
 90
       50
176
     1
 40
0.0
176
     1
 40
1.0
176
     1
 90
        0
176
     1
 62
    18
420
        0
176
     1
 90
       50
176
     1
 90
        3
176
     1
 62
     5
420
      255
176
     1
290
     0
176
     1
 90
       50
176
     1
 90
       50
176
     1
 90
       50
176
     1
290
     0
176
     1
 90
       50
176
     1
 62
   256
176
     0
 40
1.0
176
     0
 90
        2
176
     1
  1
strokes_ogs.tif
176
     1
290
     0
176
     1
 40
1.0
176
     1
 40
1.0
176
     1
  0
DICTIONARYVAR
  5
48C
102
{ACAD_REACTORS
330
48B
102
}
330
48B
100
DictionaryVariables
280
     0
  1
1:1
  0
DICTIONARYVAR
  5
494
102
{ACAD_REACTORS
330
48B
102
}
330
48B
100
DictionaryVariables
280
     0
  1
3.500000
  0
DICTIONARYVAR
  5
495
102
{ACAD_REACTORS
330
48B
102
}
330
48B
100
DictionaryVariables
280
     0
  1
acadiso.lin
  0
DICTIONARYVAR
  5
491
102
{ACAD_REACTORS
330
48B
102
}
330
48B
100
DictionaryVariables
280
     0
  1
Standard
  0
DICTIONARYVAR
  5
490
102
{ACAD_REACTORS
330
48B
102
}
330
48B
100
DictionaryVariables
280
     0
  1
Standard
  0
DICTIONARY
  5
48D
330
6A
100
AcDbDictionary
280
     1
281
     1
  3
ACAD_ROUNDTRIP_2008_TABLESTYLE_CELLSTYLEMAP
360
48E
  0
CELLSTYLEMAP
  5
48E
102
{ACAD_REACTORS
330
48D
102
}
330
48D
100
AcDbCellStyleMap
 90
        3
300
CELLSTYLE
  1
TABLEFORMAT_BEGIN
 90
        5
170
     1
 91
        0
 92
    32768
 62
   257
 93
        1
300
CONTENTFORMAT
  1
CONTENTFORMAT_BEGIN
 90
        0
 91
        0
 92
        4
 93
        0
300

 40
0.0
140
1.0
 94
        5
 62
     0
340
11
144
6.0
309
CONTENTFORMAT_END
171
     1
301
MARGIN
  1
CELLMARGIN_BEGIN
 40
1.5
 40
1.5
 40
1.5
 40
1.5
 40
1.5
 40
1.5
309
CELLMARGIN_END
 94
        6
 95
        1
302
GRIDFORMAT
  1
GRIDFORMAT_BEGIN
 90
        0
 91
        1
 62
     0
 92
       -2
340
14
 93
        0
 40
0.045
309
GRIDFORMAT_END
 95
        2
302
GRIDFORMAT
  1
GRIDFORMAT_BEGIN
 90
        0
 91
        1
 62
     0
 92
       -2
340
14
 93
        0
 40
0.045
309
GRIDFORMAT_END
 95
        4
302
GRIDFORMAT
  1
GRIDFORMAT_BEGIN
 90
        0
 91
        1
 62
     0
 92
       -2
340
14
 93
        0
 40
0.045
309
GRIDFORMAT_END
 95
        8
302
GRIDFORMAT
  1
GRIDFORMAT_BEGIN
 90
        0
 91
        1
 62
     0
 92
       -2
340
14
 93
        0
 40
0.045
309
GRIDFORMAT_END
 95
       16
302
GRIDFORMAT
  1
GRIDFORMAT_BEGIN
 90
        0
 91
        1
 62
     0
 92
       -2
340
14
 93
        0
 40
0.045
309
GRIDFORMAT_END
 95
       32
302
GRIDFORMAT
  1
GRIDFORMAT_BEGIN
 90
        0
 91
        1
 62
     0
 92
       -2
340
14
 93
        0
 40
0.045
309
GRIDFORMAT_END
309
TABLEFORMAT_END
  1
CELLSTYLE_BEGIN
 90
        1
 91
        1
300
_TITLE
309
CELLSTYLE_END
300
CELLSTYLE
  1
TABLEFORMAT_BEGIN
 90
        5
170
     1
 91
        0
 92
        0
 62
   257
 93
        1
300
CONTENTFORMAT
  1
CONTENTFORMAT_BEGIN
 90
        0
 91
        0
 92
        4
 93
        0
300

 40
0.0
140
1.0
 94
        5
 62
     0
340
11
144
4.5
309
CONTENTFORMAT_END
171
     1
301
MARGIN
  1
CELLMARGIN_BEGIN
 40
1.5
 40
1.5
 40
1.5
 40
1.5
 40
1.5
 40
1.5
309
CELLMARGIN_END
 94
        6
 95
        1
302
GRIDFORMAT
  1
GRIDFORMAT_BEGIN
 90
        0
 91
        1
 62
     0
 92
       -2
340
14
 93
        0
 40
0.045
309
GRIDFORMAT_END
 95
        2
302
GRIDFORMAT
  1
GRIDFORMAT_BEGIN
 90
        0
 91
        1
 62
     0
 92
       -2
340
14
 93
        0
 40
0.045
309
GRIDFORMAT_END
 95
        4
302
GRIDFORMAT
  1
GRIDFORMAT_BEGIN
 90
        0
 91
        1
 62
     0
 92
       -2
340
14
 93
        0
 40
0.045
309
GRIDFORMAT_END
 95
        8
302
GRIDFORMAT
  1
GRIDFORMAT_BEGIN
 90
        0
 91
        1
 62
     0
 92
       -2
340
14
 93
        0
 40
0.045
309
GRIDFORMAT_END
 95
       16
302
GRIDFORMAT
  1
GRIDFORMAT_BEGIN
 90
        0
 91
        1
 62
     0
 92
       -2
340
14
 93
        0
 40
0.045
309
GRIDFORMAT_END
 95
       32
302
GRIDFORMAT
  1
GRIDFORMAT_BEGIN
 90
        0
 91
        1
 62
     0
 92
       -2
340
14
 93
        0
 40
0.045
309
GRIDFORMAT_END
309
TABLEFORMAT_END
  1
CELLSTYLE_BEGIN
 90
        2
 91
        1
300
_HEADER
309
CELLSTYLE_END
300
CELLSTYLE
  1
TABLEFORMAT_BEGIN
 90
        5
170
     1
 91
        0
 92
        0
 62
   257
 93
        1
300
CONTENTFORMAT
  1
CONTENTFORMAT_BEGIN
 90
        0
 91
        0
 92
        4
 93
        0
300

 40
0.0
140
1.0
 94
        2
 62
     0
340
11
144
4.5
309
CONTENTFORMAT_END
171
     1
301
MARGIN
  1
CELLMARGIN_BEGIN
 40
1.5
 40
1.5
 40
1.5
 40
1.5
 40
1.5
 40
1.5
309
CELLMARGIN_END
 94
        6
 95
        1
302
GRIDFORMAT
  1
GRIDFORMAT_BEGIN
 90
        0
 91
        1
 62
     0
 92
       -2
340
14
 93
        0
 40
0.045
309
GRIDFORMAT_END
 95
        2
302
GRIDFORMAT
  1
GRIDFORMAT_BEGIN
 90
        0
 91
        1
 62
     0
 92
       -2
340
14
 93
        0
 40
0.045
309
GRIDFORMAT_END
 95
        4
302
GRIDFORMAT
  1
GRIDFORMAT_BEGIN
 90
        0
 91
        1
 62
     0
 92
       -2
340
14
 93
        0
 40
0.045
309
GRIDFORMAT_END
 95
        8
302
GRIDFORMAT
  1
GRIDFORMAT_BEGIN
 90
        0
 91
        1
 62
     0
 92
       -2
340
14
 93
        0
 40
0.045
309
GRIDFORMAT_END
 95
       16
302
GRIDFORMAT
  1
GRIDFORMAT_BEGIN
 90
        0
 91
        1
 62
     0
 92
       -2
340
14
 93
        0
 40
0.045
309
GRIDFORMAT_END
 95
       32
302
GRIDFORMAT
  1
GRIDFORMAT_BEGIN
 90
        0
 91
        1
 62
     0
 92
       -2
340
14
 93
        0
 40
0.045
309
GRIDFORMAT_END
309
TABLEFORMAT_END
  1
CELLSTYLE_BEGIN
 90
        3
 91
        2
300
_DATA
309
CELLSTYLE_END
  0
ENDSEC
  0
EOF
