  0
SECTION
  2
HEADER
  9
$ACADVER
  1
AC1027
  9
$ACADMAINTVER
 70
   105
  9
$DWGCODEPAGE
  3
ANSI_1251
  9
$REQUIREDVERSIONS
160
                 0
  9
$INSBASE
 10
0.0
 20
0.0
 30
0.0
  9
$EXTMIN
 10
0.0
 20
0.0
 30
0.0
  9
$EXTMAX
 10
1600.0
 20
1000.0
 30
0.0
  9
$LIMMIN
 10
0.0
 20
0.0
  9
$LIMMAX
 10
1600.0
 20
1000.0
  9
$ORTHOMODE
 70
     0
  9
$REGENMODE
 70
     1
  9
$FILLMODE
 70
     1
  9
$QTEXTMODE
 70
     0
  9
$MIRRTEXT
 70
     1
  9
$LTSCALE
 40
1.0
  9
$ATTMODE
 70
     1
  9
$TEXTSIZE
 40
3.5
  9
$TRACEWID
 40
1.0
  9
$TEXTSTYLE
  7
Standard
  9
$CLAYER
  8
0
  9
$CELTYPE
  6
ByLayer
  9
$CECOLOR
 62
   256
  9
$CELTSCALE
 40
1.0
  9
$DISPSILH
 70
     0
  9
$DIMSCALE
 40
1.0
  9
$DIMASZ
 40
3.5
  9
$DIMEXO
 40
0.01
  9
$DIMDLI
 40
3.75
  9
$DIMRND
 40
0.0
  9
$DIMDLE
 40
0.0
  9
$DIMEXE
 40
1.0
  9
$DIMTP
 40
0.0
  9
$DIMTM
 40
0.0
  9
$DIMTXT
 40
3.5
  9
$DIMCEN
 40
2.5
  9
$DIMTSZ
 40
0.0
  9
$DIMTOL
 70
     0
  9
$DIMLIM
 70
     0
  9
$DIMTIH
 70
     1
  9
$DIMTOH
 70
     1
  9
$DIMSE1
 70
     0
  9
$DIMSE2
 70
     0
  9
$DIMTAD
 70
     1
  9
$DIMZIN
 70
     0
  9
$DIMBLK
  1

  9
$DIMASO
 70
     1
  9
$DIMSHO
 70
     1
  9
$DIMPOST
  1

  9
$DIMAPOST
  1

  9
$DIMALT
 70
     0
  9
$DIMALTD
 70
     3
  9
$DIMALTF
 40
0.0393700787
  9
$DIMLFAC
 40
1.0
  9
$DIMTOFL
 70
     1
  9
$DIMTVP
 40
0.0
  9
$DIMTIX
 70
     0
  9
$DIMSOXD
 70
     0
  9
$DIMSAH
 70
     0
  9
$DIMBLK1
  1

  9
$DIMBLK2
  1

  9
$DIMSTYLE
  2
ISO-25
  9
$DIMCLRD
 70
     0
  9
$DIMCLRE
 70
     0
  9
$DIMCLRT
 70
     0
  9
$DIMTFAC
 40
1.0
  9
$DIMGAP
 40
3.0
  9
$DIMJUST
 70
     0
  9
$DIMSD1
 70
     0
  9
$DIMSD2
 70
     0
  9
$DIMTOLJ
 70
     0
  9
$DIMTZIN
 70
     0
  9
$DIMALTZ
 70
     0
  9
$DIMALTTZ
 70
     0
  9
$DIMUPT
 70
     0
  9
$DIMDEC
 70
     2
  9
$DIMTDEC
 70
     3
  9
$DIMALTU
 70
     2
  9
$DIMALTTD
 70
     3
  9
$DIMTXSTY
  7
Standard
  9
$DIMAUNIT
 70
     0
  9
$DIMADEC
 70
     2
  9
$DIMALTRND
 40
0.0
  9
$DIMAZIN
 70
     0
  9
$DIMDSEP
 70
    44
  9
$DIMATFIT
 70
     3
  9
$DIMFRAC
 70
     0
  9
$DIMLDRBLK
  1

  9
$DIMLUNIT
 70
     2
  9
$DIMLWD
 70
    -2
  9
$DIMLWE
 70
    -2
  9
$DIMTMOVE
 70
     0
  9
$DIMFXL
 40
1.0
  9
$DIMFXLON
 70
     0
  9
$DIMJOGANG
 40
0.7853981634
  9
$DIMTFILL
 70
     0
  9
$DIMTFILLCLR
 70
     0
  9
$DIMARCSYM
 70
     0
  9
$DIMLTYPE
  6

  9
$DIMLTEX1
  6

  9
$DIMLTEX2
  6

  9
$DIMTXTDIRECTION
 70
     0
  9
$LUNITS
 70
     2
  9
$LUPREC
 70
     4
  9
$SKETCHINC
 40
1.0
  9
$FILLETRAD
 40
10.0
  9
$AUNITS
 70
     0
  9
$AUPREC
 70
     2
  9
$MENU
  1
.
  9
$ELEVATION
 40
0.0
  9
$PELEVATION
 40
0.0
  9
$THICKNESS
 40
0.0
  9
$LIMCHECK
 70
     0
  9
$CHAMFERA
 40
0.0
  9
$CHAMFERB
 40
0.0
  9
$CHAMFERC
 40
0.0
  9
$CHAMFERD
 40
0.0
  9
$SKPOLY
 70
     0
  9
$TDCREATE
 40
2459598.512634004
  9
$TDUCREATE
 40
2459598.429300671
  9
$TDUPDATE
 40
2459598.512635729
  9
$TDUUPDATE
 40
2459598.429302396
  9
$TDINDWG
 40
0.0000000116
  9
$TDUSRTIMER
 40
0.0000000116
  9
$USRTIMER
 70
     1
  9
$ANGBASE
 50
0.0
  9
$ANGDIR
 70
     0
  9
$PDMODE
 70
     0
  9
$PDSIZE
 40
-1.0
  9
$PLINEWID
 40
0.0
  9
$SPLFRAME
 70
     0
  9
$SPLINETYPE
 70
     6
  9
$SPLINESEGS
 70
     8
  9
$HANDSEED
  5
14A
  9
$SURFTAB1
 70
     6
  9
$SURFTAB2
 70
     6
  9
$SURFTYPE
 70
     6
  9
$SURFU
 70
     6
  9
$SURFV
 70
     6
  9
$UCSBASE
  2

  9
$UCSNAME
  2

  9
$UCSORG
 10
0.0
 20
0.0
 30
0.0
  9
$UCSXDIR
 10
1.0
 20
0.0
 30
0.0
  9
$UCSYDIR
 10
0.0
 20
1.0
 30
0.0
  9
$UCSORTHOREF
  2

  9
$UCSORTHOVIEW
 70
     0
  9
$UCSORGTOP
 10
0.0
 20
0.0
 30
0.0
  9
$UCSORGBOTTOM
 10
0.0
 20
0.0
 30
0.0
  9
$UCSORGLEFT
 10
0.0
 20
0.0
 30
0.0
  9
$UCSORGRIGHT
 10
0.0
 20
0.0
 30
0.0
  9
$UCSORGFRONT
 10
0.0
 20
0.0
 30
0.0
  9
$UCSORGBACK
 10
0.0
 20
0.0
 30
0.0
  9
$PUCSBASE
  2

  9
$PUCSNAME
  2

  9
$PUCSORG
 10
0.0
 20
0.0
 30
0.0
  9
$PUCSXDIR
 10
1.0
 20
0.0
 30
0.0
  9
$PUCSYDIR
 10
0.0
 20
1.0
 30
0.0
  9
$PUCSORTHOREF
  2

  9
$PUCSORTHOVIEW
 70
     0
  9
$PUCSORGTOP
 10
0.0
 20
0.0
 30
0.0
  9
$PUCSORGBOTTOM
 10
0.0
 20
0.0
 30
0.0
  9
$PUCSORGLEFT
 10
0.0
 20
0.0
 30
0.0
  9
$PUCSORGRIGHT
 10
0.0
 20
0.0
 30
0.0
  9
$PUCSORGFRONT
 10
0.0
 20
0.0
 30
0.0
  9
$PUCSORGBACK
 10
0.0
 20
0.0
 30
0.0
  9
$USERI1
 70
     0
  9
$USERI2
 70
     0
  9
$USERI3
 70
     0
  9
$USERI4
 70
     0
  9
$USERI5
 70
     0
  9
$USERR1
 40
0.0
  9
$USERR2
 40
0.0
  9
$USERR3
 40
0.0
  9
$USERR4
 40
0.0
  9
$USERR5
 40
0.0
  9
$WORLDVIEW
 70
     1
  9
$SHADEDGE
 70
     3
  9
$SHADEDIF
 70
    70
  9
$TILEMODE
 70
     1
  9
$MAXACTVP
 70
    64
  9
$PINSBASE
 10
0.0
 20
0.0
 30
0.0
  9
$PLIMCHECK
 70
     0
  9
$PEXTMIN
 10
1.0000000000E+20
 20
1.0000000000E+20
 30
1.0000000000E+20
  9
$PEXTMAX
 10
-1.0000000000E+20
 20
-1.0000000000E+20
 30
-1.0000000000E+20
  9
$PLIMMIN
 10
0.0
 20
0.0
  9
$PLIMMAX
 10
420.0
 20
297.0
  9
$UNITMODE
 70
     0
  9
$VISRETAIN
 70
     1
  9
$PLINEGEN
 70
     0
  9
$PSLTSCALE
 70
     1
  9
$TREEDEPTH
 70
  3020
  9
$CMLSTYLE
  2
Standard
  9
$CMLJUST
 70
     0
  9
$CMLSCALE
 40
20.0
  9
$PROXYGRAPHICS
 70
     1
  9
$MEASUREMENT
 70
     1
  9
$CELWEIGHT
370
    -1
  9
$ENDCAPS
280
     0
  9
$JOINSTYLE
280
     0
  9
$LWDISPLAY
290
     1
  9
$INSUNITS
 70
     4
  9
$HYPERLINKBASE
  1

  9
$STYLESHEET
  1

  9
$XEDIT
290
     1
  9
$CEPSNTYPE
380
     0
  9
$PSTYLEMODE
290
     1
  9
$FINGERPRINTGUID
  2
{4dc8db94-68a4-484b-a528-dede2856adab}
  9
$VERSIONGUID
  2
{FAEB1C32-E019-11D5-929B-00C0DF256EC4}
  9
$EXTNAMES
290
     1
  9
$PSVPSCALE
 40
0.0
  9
$OLESTARTUP
290
     0
  9
$SORTENTS
280
   127
  9
$INDEXCTL
280
     0
  9
$HIDETEXT
280
     1
  9
$XCLIPFRAME
280
     2
  9
$HALOGAP
280
     0
  9
$OBSCOLOR
 70
   257
  9
$OBSLTYPE
280
     0
  9
$INTERSECTIONDISPLAY
280
     0
  9
$INTERSECTIONCOLOR
 70
   257
  9
$DIMASSOC
280
     2
  9
$PROJECTNAME
  1

  9
$CAMERADISPLAY
290
     0
  9
$LENSLENGTH
 40
50.0
  9
$CAMERAHEIGHT
 40
0.0
  9
$STEPSPERSEC
 40
2.0
  9
$STEPSIZE
 40
6.0
  9
$3DDWFPREC
 40
2.0
  9
$PSOLWIDTH
 40
5.0
  9
$PSOLHEIGHT
 40
80.0
  9
$LOFTANG1
 40
1.5707963268
  9
$LOFTANG2
 40
1.5707963268
  9
$LOFTMAG1
 40
0.0
  9
$LOFTMAG2
 40
0.0
  9
$LOFTPARAM
 70
     7
  9
$LOFTNORMALS
280
     1
  9
$LATITUDE
 40
37.795
  9
$LONGITUDE
 40
-122.394
  9
$NORTHDIRECTION
 40
0.0
  9
$TIMEZONE
 70
 -8000
  9
$LIGHTGLYPHDISPLAY
280
     1
  9
$TILEMODELIGHTSYNCH
280
     1
  9
$CMATERIAL
347
44
  9
$SOLIDHIST
280
     0
  9
$SHOWHIST
280
     1
  9
$DWFFRAME
280
     2
  9
$DGNFRAME
280
     2
  9
$REALWORLDSCALE
290
     1
  9
$INTERFERECOLOR
 62
   256
  9
$CSHADOW
280
     0
  9
$SHADOWPLANELOCATION
 40
0.0
  0
ENDSEC
  0
SECTION
  2
CLASSES
  0
CLASS
  1
ACDBDICTIONARYWDFLT
  2
AcDbDictionaryWithDefault
  3
ObjectDBX Classes
 90
        0
 91
        3
280
     0
281
     0
  0
CLASS
  1
VISUALSTYLE
  2
AcDbVisualStyle
  3
ObjectDBX Classes
 90
     4095
 91
        3
280
     0
281
     0
  0
CLASS
  1
MATERIAL
  2
AcDbMaterial
  3
ObjectDBX Classes
 90
     1153
 91
        3
280
     0
281
     0
  0
CLASS
  1
SCALE
  2
AcDbScale
  3
ObjectDBX Classes
 90
     1153
 91
        3
280
     0
281
     0
  0
CLASS
  1
TABLESTYLE
  2
AcDbTableStyle
  3
ObjectDBX Classes
 90
     4095
 91
        3
280
     0
281
     0
  0
CLASS
  1
MLEADERSTYLE
  2
AcDbMLeaderStyle
  3
ACDB_MLEADERSTYLE_CLASS
 90
     4095
 91
        3
280
     0
281
     0
  0
CLASS
  1
SUN
  2
AcDbSun
  3
SCENEOE
 90
     1153
 91
        3
280
     0
281
     0
  0
CLASS
  1
DICTIONARYVAR
  2
AcDbDictionaryVar
  3
ObjectDBX Classes
 90
        0
 91
        3
280
     0
281
     0
  0
CLASS
  1
CELLSTYLEMAP
  2
AcDbCellStyleMap
  3
ObjectDBX Classes
 90
     1152
 91
        3
280
     0
281
     0
  0
ENDSEC
  0
SECTION
  2
TABLES
  0
TABLE
  2
VPORT
  5
8
330
0
100
AcDbSymbolTable
 70
     1
  0
VPORT
  5
29
330
8
100
AcDbSymbolTableRecord
100
AcDbViewportTableRecord
  2
*Active
 70
     0
 10
0.0
 20
0.0
 11
1.0
 21
1.0
 12
800.0
 22
500.0
 13
0.0
 23
0.0
 14
10.0
 24
10.0
 15
10.0
 25
10.0
 16
0.0
 26
0.0
 36
1.0
 17
0.0
 27
0.0
 37
0.0
 40
1000.0
 41
1.6
 42
50.0
 43
0.0
 44
0.0
 50
0.0
 51
0.0
 71
     0
 72
  2000
 73
     1
 74
     3
 75
     0
 76
     0
 77
     0
 78
     0
281
     0
 65
     1
110
0.0
120
0.0
130
0.0
111
1.0
121
0.0
131
0.0
112
0.0
122
1.0
132
0.0
 79
     0
146
0.0
348
2F
 60
     3
 61
     5
292
     1
282
     1
141
0.0
142
0.0
 63
   250
361
6D
  0
ENDTAB
  0
TABLE
  2
LTYPE
  5
5
330
0
100
AcDbSymbolTable
 70
     6
  0
LTYPE
  5
14
330
5
100
AcDbSymbolTableRecord
100
AcDbLinetypeTableRecord
  2
ByBlock
 70
     0
  3

 72
    65
 73
     0
 40
0.0
  0
LTYPE
  5
15
330
5
100
AcDbSymbolTableRecord
100
AcDbLinetypeTableRecord
  2
ByLayer
 70
     0
  3

 72
    65
 73
     0
 40
0.0
  0
LTYPE
  5
16
330
5
100
AcDbSymbolTableRecord
100
AcDbLinetypeTableRecord
  2
Continuous
 70
     0
  3
Solid line
 72
    65
 73
     0
 40
0.0
  0
LTYPE
  5
6E
330
5
100
AcDbSymbolTableRecord
100
AcDbLinetypeTableRecord
  2
HIDDEN
 70
     0
  3
Hidden __ __ __ __ __ __ __ __ __ __ __ __ __ __
 72
    65
 73
     2
 40
1.905
 49
1.27
 74
     0
 49
-0.635
 74
     0
  0
LTYPE
  5
6F
330
5
100
AcDbSymbolTableRecord
100
AcDbLinetypeTableRecord
  2
PHANTOM
 70
     0
  3
Phantom ______  __  __  ______  __  __  ______
 72
    65
 73
     6
 40
12.7
 49
6.35
 74
     0
 49
-1.27
 74
     0
 49
1.27
 74
     0
 49
-1.27
 74
     0
 49
1.27
 74
     0
 49
-1.27
 74
     0
  0
LTYPE
  5
70
330
5
100
AcDbSymbolTableRecord
100
AcDbLinetypeTableRecord
  2
CENTER
 70
     0
  3
Center ____ _ ____ _ ____ _ ____ _ ____ _ ____
 72
    65
 73
     4
 40
10.16
 49
6.35
 74
     0
 49
-1.27
 74
     0
 49
1.27
 74
     0
 49
-1.27
 74
     0
  0
LTYPE
  5
71
330
5
100
AcDbSymbolTableRecord
100
AcDbLinetypeTableRecord
  2
CENTERX2
 70
     0
  3
Center (2x) ________  __  ________  __  _____
 72
    65
 73
     4
 40
20.32
 49
12.7
 74
     0
 49
-2.54
 74
     0
 49
2.54
 74
     0
 49
-2.54
 74
     0
  0
LTYPE
  5
72
330
5
100
AcDbSymbolTableRecord
100
AcDbLinetypeTableRecord
  2
DOT2
 70
     0
  3
Dot (.5x) ........................................
 72
    65
 73
     2
 40
0.635
 49
0.0
 74
     0
 49
-0.635
 74
     0
  0
ENDTAB
  0
TABLE
  2
LAYER
  5
2
330
0
100
AcDbSymbolTable
 70
     1
  0
LAYER
  5
10
330
2
100
AcDbSymbolTableRecord
100
AcDbLayerTableRecord
  2
0
 70
     0
 62
     7
  6
Continuous
370
    -3
390
F
347
46
348
0
  0
ENDTAB
  0
TABLE
  2
STYLE
  5
3
330
0
100
AcDbSymbolTable
 70
     1
  0
STYLE
  5
11
330
3
100
AcDbSymbolTableRecord
100
AcDbTextStyleTableRecord
  2
Standard
 70
     0
 40
0.0
 41
1.0
 50
0.0
 71
     0
 42
3.5
  3
txt
  4

  0
ENDTAB
  0
TABLE
  2
VIEW
  5
6
330
0
100
AcDbSymbolTable
 70
     0
  0
ENDTAB
  0
TABLE
  2
UCS
  5
7
330
0
100
AcDbSymbolTable
 70
     0
  0
ENDTAB
  0
TABLE
  2
APPID
  5
9
330
0
100
AcDbSymbolTable
 70
     1
  0
APPID
  5
12
330
9
100
AcDbSymbolTableRecord
100
AcDbRegAppTableRecord
  2
ACAD
 70
     0
  0
ENDTAB
  0
TABLE
  2
DIMSTYLE
  5
A
330
0
100
AcDbSymbolTable
 70
     1
100
AcDbDimStyleTable
  0
DIMSTYLE
105
27
330
A
100
AcDbSymbolTableRecord
100
AcDbDimStyleTableRecord
  2
ISO-25
 70
     0
 41
2.5
 42
0.625
 43
3.75
 44
1.25
 73
     0
 74
     0
 77
     1
 78
     8
140
2.5
141
2.5
143
0.0393700787
147
0.625
171
     3
172
     1
178
     0
271
     2
272
     2
274
     3
278
    44
283
     0
284
     8
340
11
  0
ENDTAB
  0
TABLE
  2
BLOCK_RECORD
  5
1
330
0
100
AcDbSymbolTable
 70
     1
  0
BLOCK_RECORD
  5
1F
330
1
100
AcDbSymbolTableRecord
100
AcDbBlockTableRecord
  2
*Model_Space
340
22
 70
     0
280
     1
281
     0
  0
BLOCK_RECORD
  5
1B
330
1
100
AcDbSymbolTableRecord
100
AcDbBlockTableRecord
  2
*Paper_Space
340
1E
 70
     0
280
     1
281
     0
  0
BLOCK_RECORD
  5
23
330
1
100
AcDbSymbolTableRecord
100
AcDbBlockTableRecord
  2
*Paper_Space0
340
26
 70
     0
280
     1
281
     0
  0
ENDTAB
  0
ENDSEC
  0
SECTION
  2
BLOCKS
  0
BLOCK
  5
20
330
1F
100
AcDbEntity
  8
0
100
AcDbBlockBegin
  2
*Model_Space
 70
     0
 10
0.0
 20
0.0
 30
0.0
  3
*Model_Space
  1

  0
ENDBLK
  5
21
330
1F
100
AcDbEntity
  8
0
100
AcDbBlockEnd
  0
BLOCK
  5
1C
330
1B
100
AcDbEntity
 67
     1
  8
0
100
AcDbBlockBegin
  2
*Paper_Space
 70
     0
 10
0.0
 20
0.0
 30
0.0
  3
*Paper_Space
  1

  0
ENDBLK
  5
1D
330
1B
100
AcDbEntity
 67
     1
  8
0
100
AcDbBlockEnd
  0
BLOCK
  5
24
330
23
100
AcDbEntity
  8
0
100
AcDbBlockBegin
  2
*Paper_Space0
 70
     0
 10
0.0
 20
0.0
 30
0.0
  3
*Paper_Space0
  1

  0
ENDBLK
  5
25
330
23
100
AcDbEntity
  8
0
100
AcDbBlockEnd
  0
ENDSEC
  0
SECTION
  2
ENTITIES
  0
LINE
  5
73
330
1F
100
AcDbEntity
  8
0
  6
Continuous
 62
     7
370
    50
100
AcDbLine
 10
1284.3545382852
 20
614.6367435449
 30
0.0
 11
1284.3545382852
 21
657.1482206429
 31
0.0
  0
LINE
  5
74
330
1F
100
AcDbEntity
  8
0
  6
Continuous
 62
     7
370
    50
100
AcDbLine
 10
280.1163853301
 20
32.3353376839
 30
0.0
 11
1282.1313513082
 21
610.7862648689
 31
0.0
  0
LINE
  5
75
330
1F
100
AcDbEntity
  8
0
  6
Continuous
 62
     7
370
    50
100
AcDbLine
 10
1282.529813532
 20
616.1498364339
 30
0.0
 11
1280.4084931884
 21
614.9252242661
 31
0.0
  0
LINE
  5
76
330
1F
100
AcDbEntity
  8
0
  6
Continuous
 62
     7
370
    50
100
AcDbLine
 10
1280.4084931884
 20
614.9252242661
 30
0.0
 11
1272.7929531551
 21
619.3215819483
 31
0.0
  0
LINE
  5
77
330
1F
100
AcDbEntity
  8
0
  6
Continuous
 62
     7
370
    50
100
AcDbLine
 10
1274.9142734986
 20
620.546194116
 30
0.0
 11
1272.7929531551
 21
619.3215819483
 31
0.0
  0
LINE
  5
78
330
1F
100
AcDbEntity
  8
0
  6
Continuous
 62
     7
370
    50
100
AcDbLine
 10
1282.529813532
 20
616.1498364339
 30
0.0
 11
1274.9142734986
 21
620.546194116
 31
0.0
  0
LINE
  5
79
330
1F
100
AcDbEntity
  8
0
  6
Continuous
 62
     7
370
    50
100
AcDbLine
 10
1274.9142734986
 20
665.1177164912
 30
0.0
 11
1274.9142734986
 21
620.546194116
 31
0.0
  0
LINE
  5
7A
330
1F
100
AcDbEntity
  8
0
  6
Continuous
 62
     7
370
    50
100
AcDbLine
 10
1282.529813532
 20
660.7213588091
 30
0.0
 11
1274.9142734986
 21
665.1177164912
 31
0.0
  0
LINE
  5
7B
330
1F
100
AcDbEntity
  8
0
  6
Continuous
 62
     7
370
    50
100
AcDbLine
 10
1282.529813532
 20
660.7213588091
 30
0.0
 11
1282.529813532
 21
616.1498364339
 31
0.0
  0
LINE
  5
7C
330
1F
100
AcDbEntity
  8
0
  6
Continuous
 62
     7
370
    50
100
AcDbLine
 10
1272.7929531551
 20
663.8931043235
 30
0.0
 11
1272.7929531551
 21
619.3215819483
 31
0.0
  0
LINE
  5
7D
330
1F
100
AcDbEntity
  8
0
  6
Continuous
 62
     7
370
    50
100
AcDbLine
 10
1274.9142734986
 20
665.1177164912
 30
0.0
 11
1272.7929531551
 21
663.8931043235
 31
0.0
  0
LINE
  5
7E
330
1F
100
AcDbEntity
  8
0
  6
Continuous
 62
     7
370
    50
100
AcDbLine
 10
276.1097571224
 20
32.1289006913
 30
0.0
 11
268.494217089
 21
36.5252583735
 31
0.0
  0
LINE
  5
7F
330
1F
100
AcDbEntity
  8
0
  6
Continuous
 62
     7
370
    50
100
AcDbLine
 10
1272.2929531551
 20
616.0059341114
 30
0.0
 11
268.494217089
 21
36.5252583735
 31
0.0
  0
LINE
  5
80
330
1F
100
AcDbEntity
  8
0
  6
Continuous
 62
     7
370
    50
100
AcDbLine
 10
1279.9084931884
 20
611.6095764292
 30
0.0
 11
1272.2929531551
 21
616.0059341114
 31
0.0
  0
LINE
  5
81
330
1F
100
AcDbEntity
  8
0
  6
Continuous
 62
     7
370
    50
100
AcDbLine
 10
1279.9084931884
 20
611.6095764292
 30
0.0
 11
276.1097571224
 21
32.1289006913
 31
0.0
  0
LINE
  5
82
330
1F
100
AcDbEntity
  8
0
  6
Continuous
 62
     7
370
    50
100
AcDbLine
 10
1279.9084931884
 20
614.0591988649
 30
0.0
 11
1272.2929531551
 21
618.4555565471
 31
0.0
  0
LINE
  5
83
330
1F
100
AcDbEntity
  8
0
  6
Continuous
 62
     7
370
    50
100
AcDbLine
 10
1279.9084931884
 20
611.6095764292
 30
0.0
 11
1279.9084931884
 21
614.0591988649
 31
0.0
  0
LINE
  5
84
330
1F
100
AcDbEntity
  8
0
  6
Continuous
 62
     7
370
    50
100
AcDbLine
 10
1272.2929531551
 20
616.0059341114
 30
0.0
 11
1272.2929531551
 21
618.4555565471
 31
0.0
  0
LINE
  5
85
330
1F
100
AcDbEntity
  8
0
  6
Continuous
 62
     7
370
    50
100
AcDbLine
 10
268.494217089
 20
36.5252583735
 30
0.0
 11
268.494217089
 21
38.9748808091
 31
0.0
  0
LINE
  5
86
330
1F
100
AcDbEntity
  8
0
  6
Continuous
 62
     7
370
    50
100
AcDbLine
 10
1272.2929531551
 20
618.4555565471
 30
0.0
 11
268.494217089
 21
38.9748808091
 31
0.0
  0
LWPOLYLINE
  5
87
330
1F
100
AcDbEntity
  8
0
  6
Continuous
 62
     7
370
    50
100
AcDbPolyline
 90
       10
 70
   128
 43
0.0
 10
1282.529813532
 20
613.1236591744
 10
1283.2177865583
 20
613.3704171629
 10
1283.7691665927
 20
613.6878026153
 10
1284.1366967881
 20
614.0418389072
 10
1284.3301611911
 20
614.4349591005
 10
1284.3329627669
 20
614.8266249814
 10
1284.1451765954
 20
615.2203220499
 10
1283.7829128619
 20
615.5754631141
 10
1283.2364510641
 20
615.8945448294
 10
1282.529813532
 20
616.1498364339
  0
ARC
  5
88
330
1F
100
AcDbEntity
  8
0
  6
Continuous
 62
     7
370
    50
100
AcDbCircle
 10
1279.819804641
 20
657.1139547223
 30
0.0
 40
4.511930012118623
100
AcDbArc
 50
0.4346970751
 51
53.0848356866
  0
LINE
  5
89
330
1F
100
AcDbEntity
  8
0
  6
Continuous
 62
     7
370
    50
100
AcDbLine
 10
1280.4084931884
 20
614.3482713421
 30
0.0
 11
1282.529813532
 21
613.1236591744
 31
0.0
  0
LWPOLYLINE
  5
8A
330
1F
100
AcDbEntity
  8
0
  6
Continuous
 62
     7
370
    50
100
AcDbPolyline
 90
        9
 70
   128
 43
0.0
 10
1280.4084931884
 20
614.3482713421
 10
1280.8463797387
 20
614.37877633
 10
1281.1576265436
 20
614.4559480594
 10
1281.3116076128
 20
614.5482861097
 10
1281.3534300396
 20
614.6512327816
 10
1281.2799249935
 20
614.7524073697
 10
1281.0954342107
 20
614.839610541
 10
1280.8002771643
 20
614.9012662103
 10
1280.4084931884
 20
614.9252242661
  0
ARC
  5
8B
330
1F
100
AcDbEntity
  8
0
  6
Continuous
 62
     7
370
    50
100
AcDbCircle
 10
277.873966553
 20
36.3621250162
 30
0.0
 40
4.586133785724781
100
AcDbArc
 50
247.3759146903
 51
299.107485717
  0
LWPOLYLINE
  5
8C
330
1F
100
AcDbEntity
  8
0
  6
Continuous
 62
     7
370
    50
100
AcDbPolyline
 90
       10
 70
   128
 43
0.0
 10
1279.9084931884
 20
611.6095764292
 10
1280.466233245
 20
611.1372483211
 10
1281.0168495323
 20
610.8185400198
 10
1281.5072839812
 20
610.6773801388
 10
1281.9445377732
 20
610.7065155525
 10
1282.285199624
 20
610.9000408318
 10
1282.5323277716
 20
611.2596374587
 10
1282.6588221204
 20
611.7510502234
 10
1282.6619866617
 20
612.3839492496
 10
1282.529813532
 20
613.1236591744
  0
LWPOLYLINE
  5
8D
330
1F
100
AcDbEntity
  8
0
  6
Continuous
 62
     7
370
    50
100
AcDbPolyline
 90
        9
 70
   128
 43
0.0
 10
1279.9084931884
 20
614.0591988649
 10
1280.1538975171
 20
613.6953048907
 10
1280.3764009369
 20
613.4644251098
 10
1280.5334020473
 20
613.3773179243
 10
1280.6435121678
 20
613.392649007
 10
1280.6944237068
 20
613.5069702651
 10
1280.6777414643
 20
613.7104200107
 10
1280.5835993731
 20
613.996932456
 10
1280.4084931884
 20
614.3482713421
  0
LINE
  5
8E
330
1F
100
AcDbEntity
  8
0
  6
Continuous
 62
     7
370
    50
100
AcDbLine
 10
1280.4084931884
 20
614.9252242661
 30
0.0
 11
1280.4084931884
 21
614.3482713421
 31
0.0
  0
LINE
  5
8F
330
1F
100
AcDbEntity
  8
0
  6
Continuous
 62
     7
370
    50
100
AcDbLine
 10
1280.4084931884
 20
614.3482713421
 30
0.0
 11
1279.9081219514
 21
614.0594131755
 31
0.0
  0
LINE
  5
90
330
1F
100
AcDbEntity
  8
0
  6
Continuous
 62
     7
370
    50
100
AcDbLine
 10
280.1776669288
 20
45.7195928364
 30
0.0
 11
280.1776669288
 21
77.3787379141
 31
0.0
  0
LINE
  5
91
330
1F
100
AcDbEntity
  8
0
  6
Continuous
 62
     7
370
    50
100
AcDbLine
 10
280.1776669288
 20
77.3787379141
 30
0.0
 11
1272.7929531551
 21
650.4033454808
 31
0.0
  0
LINE
  5
92
330
1F
100
AcDbEntity
  8
0
  6
Continuous
 62
     7
370
    50
100
AcDbLine
 10
879.9951362059
 20
394.4383275809
 30
0.0
 11
991.7180076334
 21
458.9345684149
 31
0.0
  0
LWPOLYLINE
  5
93
330
1F
100
AcDbEntity
  8
0
  6
Continuous
 62
     7
370
    50
100
AcDbPolyline
 90
       40
 70
   128
 43
0.0
 10
991.7180076334
 20
458.9345684149
 10
992.3438906538
 20
459.3250086845
 10
992.9657145826
 20
459.7711681846
 10
993.5794466531
 20
460.2701533996
 10
994.1811065772
 20
460.818728219
 10
994.7667923595
 20
461.4133349245
 10
995.332705603
 20
462.0501172635
 10
995.875176143
 20
462.7249454582
 10
996.3906858501
 20
463.4334429887
 10
996.8758914458
 20
464.1710149767
 10
997.3276461858
 20
464.9328779848
 10
997.7430202671
 20
465.7140910392
 10
998.1193198296
 20
466.5095876732
 10
998.4541044261
 20
467.3142087861
 10
998.74520285
 20
468.1227361011
 10
998.9907272164
 20
468.9299260083
 10
999.1890852055
 20
469.7305435715
 10
999.3389903896
 20
470.5193964785
 10
999.4394705762
 20
471.2913687155
 10
999.4898741126
 20
472.0414537463
 10
999.4898741126
 20
472.7647869818
 10
999.4394705762
 20
473.4566773282
 10
999.3389903896
 20
474.1126376111
 10
999.1890852055
 20
474.7284136765
 10
998.9907272164
 20
475.3000119803
 10
998.74520285
 20
475.8237254881
 10
998.4541044261
 20
476.2961577168
 10
998.1193198296
 20
476.7142447622
 10
997.7430202671
 20
477.0752751693
 10
997.3276461858
 20
477.3769075175
 10
996.8758914458
 20
477.6171856051
 10
996.3906858501
 20
477.7945511366
 10
995.875176143
 20
477.9078538284
 10
995.332705603
 20
477.9563588692
 10
994.7667923595
 20
477.9397516851
 10
994.1811065772
 20
477.8581399801
 10
993.5794466531
 20
477.7120530373
 10
992.9657145826
 20
477.5024382868
 10
992.3438906538
 20
477.2306551605
 10
991.7180076334
 20
476.8984662764
  0
LINE
  5
94
330
1F
100
AcDbEntity
  8
0
  6
Continuous
 62
     7
370
    50
100
AcDbLine
 10
991.7180076334
 20
476.8984662764
 30
0.0
 11
879.9951362059
 21
412.4022254424
 31
0.0
  0
LWPOLYLINE
  5
95
330
1F
100
AcDbEntity
  8
0
  6
Continuous
 62
     7
370
    50
100
AcDbPolyline
 90
       40
 70
   128
 43
0.0
 10
879.9951362059
 20
412.4022254424
 10
879.3692531855
 20
412.0117851728
 10
878.7474292567
 20
411.5656256727
 10
878.1336971862
 20
411.0666404576
 10
877.5320372621
 20
410.5180656382
 10
876.9463514798
 20
409.9234589327
 10
876.3804382363
 20
409.2866765937
 10
875.8379676963
 20
408.6118483991
 10
875.3224579893
 20
407.9033508686
 10
874.8372523935
 20
407.1657788805
 10
874.3854976536
 20
406.4039158724
 10
873.9701235722
 20
405.6227028181
 10
873.5938240097
 20
404.827206184
 10
873.2590394133
 20
404.0225850712
 10
872.9679409894
 20
403.2140577562
 10
872.722416623
 20
402.406867849
 10
872.5240586339
 20
401.6062502858
 10
872.3741534497
 20
400.8173973788
 10
872.2736732631
 20
400.0454251418
 10
872.2232697267
 20
399.2953401109
 10
872.2232697267
 20
398.5720068755
 10
872.2736732631
 20
397.8801165291
 10
872.3741534497
 20
397.2241562461
 10
872.5240586339
 20
396.6083801807
 10
872.722416623
 20
396.0367818769
 10
872.9679409894
 20
395.5130683692
 10
873.2590394133
 20
395.0406361404
 10
873.5938240097
 20
394.622549095
 10
873.9701235722
 20
394.2615186879
 10
874.3854976536
 20
393.9598863398
 10
874.8372523935
 20
393.7196082522
 10
875.3224579893
 20
393.5422427207
 10
875.8379676963
 20
393.4289400288
 10
876.3804382363
 20
393.380434988
 10
876.9463514798
 20
393.3970421722
 10
877.5320372621
 20
393.4786538772
 10
878.1336971862
 20
393.6247408199
 10
878.7474292567
 20
393.8343555705
 10
879.3692531855
 20
394.1061386967
 10
879.9951362059
 20
394.4383275809
  0
LINE
  5
96
330
1F
100
AcDbEntity
  8
0
  6
Continuous
 62
     7
370
    50
100
AcDbLine
 10
568.8681524838
 20
214.8285429799
 30
0.0
 11
680.5910239113
 21
279.3247838139
 31
0.0
  0
LWPOLYLINE
  5
97
330
1F
100
AcDbEntity
  8
0
  6
Continuous
 62
     7
370
    50
100
AcDbPolyline
 90
       40
 70
   128
 43
0.0
 10
680.5910239113
 20
279.3247838139
 10
681.2169069317
 20
279.7152240835
 10
681.8387308605
 20
280.1613835836
 10
682.452462931
 20
280.6603687986
 10
683.0541228551
 20
281.208943618
 10
683.6398086375
 20
281.8035503235
 10
684.2057218809
 20
282.4403326625
 10
684.748192421
 20
283.1151608572
 10
685.263702128
 20
283.8236583877
 10
685.7489077237
 20
284.5612303757
 10
686.2006624637
 20
285.3230933838
 10
686.6160365451
 20
286.1043064382
 10
686.9923361075
 20
286.8998030722
 10
687.327120704
 20
287.7044241851
 10
687.6182191279
 20
288.5129515001
 10
687.8637434943
 20
289.3201414073
 10
688.0621014834
 20
290.1207589705
 10
688.2120066675
 20
290.9096118775
 10
688.3124868541
 20
291.6815841145
 10
688.3628903906
 20
292.4316691453
 10
688.3628903906
 20
293.1550023808
 10
688.3124868541
 20
293.8468927272
 10
688.2120066675
 20
294.5028530101
 10
688.0621014834
 20
295.1186290755
 10
687.8637434943
 20
295.6902273793
 10
687.6182191279
 20
296.2139408871
 10
687.327120704
 20
296.6863731158
 10
686.9923361075
 20
297.1044601612
 10
686.6160365451
 20
297.4654905683
 10
686.2006624637
 20
297.7671229165
 10
685.7489077237
 20
298.0074010041
 10
685.263702128
 20
298.1847665356
 10
684.748192421
 20
298.2980692274
 10
684.2057218809
 20
298.3465742682
 10
683.6398086375
 20
298.3299670841
 10
683.0541228551
 20
298.2483553791
 10
682.452462931
 20
298.1022684363
 10
681.8387308605
 20
297.8926536858
 10
681.2169069317
 20
297.6208705595
 10
680.5910239113
 20
297.2886816754
  0
LINE
  5
98
330
1F
100
AcDbEntity
  8
0
  6
Continuous
 62
     7
370
    50
100
AcDbLine
 10
680.5910239113
 20
297.2886816754
 30
0.0
 11
568.8681524838
 21
232.7924408414
 31
0.0
  0
LWPOLYLINE
  5
99
330
1F
100
AcDbEntity
  8
0
  6
Continuous
 62
     7
370
    50
100
AcDbPolyline
 90
       40
 70
   128
 43
0.0
 10
568.8681524838
 20
232.7924408414
 10
568.2422694635
 20
232.4020005718
 10
567.6204455346
 20
231.9558410717
 10
567.0067134642
 20
231.4568558566
 10
566.40505354
 20
230.9082810372
 10
565.8193677577
 20
230.3136743317
 10
565.2534545143
 20
229.6768919927
 10
564.7109839742
 20
229.0020637981
 10
564.1954742672
 20
228.2935662676
 10
563.7102686714
 20
227.5559942795
 10
563.2585139315
 20
226.7941312714
 10
562.8431398501
 20
226.0129182171
 10
562.4668402877
 20
225.217421583
 10
562.1320556912
 20
224.4128004702
 10
561.8409572673
 20
223.6042731552
 10
561.5954329009
 20
222.797083248
 10
561.3970749118
 20
221.9964656848
 10
561.2471697276
 20
221.2076127778
 10
561.146689541
 20
220.4356405408
 10
561.0962860046
 20
219.6855555099
 10
561.0962860046
 20
218.9622222745
 10
561.146689541
 20
218.2703319281
 10
561.2471697276
 20
217.6143716451
 10
561.3970749118
 20
216.9985955797
 10
561.5954329009
 20
216.4269972759
 10
561.8409572673
 20
215.9032837682
 10
562.1320556912
 20
215.4308515394
 10
562.4668402877
 20
215.0127644941
 10
562.8431398501
 20
214.6517340869
 10
563.2585139315
 20
214.3501017388
 10
563.7102686714
 20
214.1098236512
 10
564.1954742672
 20
213.9324581197
 10
564.7109839742
 20
213.8191554278
 10
565.2534545143
 20
213.770650387
 10
565.8193677577
 20
213.7872575712
 10
566.40505354
 20
213.8688692762
 10
567.0067134642
 20
214.0149562189
 10
567.6204455346
 20
214.2245709695
 10
568.2422694635
 20
214.4963540958
 10
568.8681524838
 20
214.8285429799
  0
LINE
  5
9A
330
1F
100
AcDbEntity
  8
0
  6
Continuous
 62
     7
370
    50
100
AcDbLine
 10
724.4316443449
 20
304.6334352804
 30
0.0
 11
836.1545157724
 21
369.1296761144
 31
0.0
  0
LWPOLYLINE
  5
9B
330
1F
100
AcDbEntity
  8
0
  6
Continuous
 62
     7
370
    50
100
AcDbPolyline
 90
       40
 70
   128
 43
0.0
 10
836.1545157724
 20
369.1296761144
 10
836.7803987927
 20
369.520116384
 10
837.4022227216
 20
369.9662758841
 10
838.015954792
 20
370.4652610991
 10
838.6176147162
 20
371.0138359185
 10
839.2033004985
 20
371.608442624
 10
839.769213742
 20
372.245224963
 10
840.311684282
 20
372.9200531577
 10
840.827193989
 20
373.6285506882
 10
841.3123995848
 20
374.3661226762
 10
841.7641543247
 20
375.1279856843
 10
842.1795284061
 20
375.9091987387
 10
842.5558279686
 20
376.7046953727
 10
842.890612565
 20
377.5093164856
 10
843.1817109889
 20
378.3178438006
 10
843.4272353553
 20
379.1250337078
 10
843.6255933444
 20
379.925651271
 10
843.7754985286
 20
380.714504178
 10
843.8759787152
 20
381.486476415
 10
843.9263822516
 20
382.2365614458
 10
843.9263822516
 20
382.9598946813
 10
843.8759787152
 20
383.6517850277
 10
843.7754985286
 20
384.3077453106
 10
843.6255933444
 20
384.923521376
 10
843.4272353553
 20
385.4951196798
 10
843.1817109889
 20
386.0188331876
 10
842.890612565
 20
386.4912654163
 10
842.5558279686
 20
386.9093524617
 10
842.1795284061
 20
387.2703828688
 10
841.7641543247
 20
387.572015217
 10
841.3123995848
 20
387.8122933046
 10
840.827193989
 20
387.9896588361
 10
840.311684282
 20
388.1029615279
 10
839.769213742
 20
388.1514665687
 10
839.2033004985
 20
388.1348593846
 10
838.6176147162
 20
388.0532476796
 10
838.015954792
 20
387.9071607368
 10
837.4022227216
 20
387.6975459863
 10
836.7803987927
 20
387.42576286
 10
836.1545157724
 20
387.0935739759
  0
LINE
  5
9C
330
1F
100
AcDbEntity
  8
0
  6
Continuous
 62
     7
370
    50
100
AcDbLine
 10
836.1545157724
 20
387.0935739759
 30
0.0
 11
724.4316443449
 21
322.5973331419
 31
0.0
  0
LWPOLYLINE
  5
9D
330
1F
100
AcDbEntity
  8
0
  6
Continuous
 62
     7
370
    50
100
AcDbPolyline
 90
       40
 70
   128
 43
0.0
 10
724.4316443449
 20
322.5973331419
 10
723.8057613245
 20
322.2068928723
 10
723.1839373957
 20
321.7607333722
 10
722.5702053252
 20
321.2617481571
 10
721.9685454011
 20
320.7131733377
 10
721.3828596188
 20
320.1185666322
 10
720.8169463753
 20
319.4817842932
 10
720.2744758352
 20
318.8069560986
 10
719.7589661282
 20
318.0984585681
 10
719.2737605325
 20
317.36088658
 10
718.8220057925
 20
316.5990235719
 10
718.4066317112
 20
315.8178105176
 10
718.0303321487
 20
315.0223138835
 10
717.6955475522
 20
314.2176927707
 10
717.4044491283
 20
313.4091654557
 10
717.1589247619
 20
312.6019755485
 10
716.9605667728
 20
311.8013579853
 10
716.8106615887
 20
311.0125050783
 10
716.7101814021
 20
310.2405328413
 10
716.6597778657
 20
309.4904478104
 10
716.6597778657
 20
308.767114575
 10
716.7101814021
 20
308.0752242286
 10
716.8106615887
 20
307.4192639456
 10
716.9605667728
 20
306.8034878802
 10
717.1589247619
 20
306.2318895764
 10
717.4044491283
 20
305.7081760687
 10
717.6955475522
 20
305.2357438399
 10
718.0303321487
 20
304.8176567946
 10
718.4066317112
 20
304.4566263874
 10
718.8220057925
 20
304.1549940393
 10
719.2737605325
 20
303.9147159517
 10
719.7589661282
 20
303.7373504202
 10
720.2744758352
 20
303.6240477283
 10
720.8169463753
 20
303.5755426875
 10
721.3828596188
 20
303.5921498717
 10
721.9685454011
 20
303.6737615767
 10
722.5702053252
 20
303.8198485194
 10
723.1839373957
 20
304.02946327
 10
723.8057613245
 20
304.3012463963
 10
724.4316443449
 20
304.6334352804
  0
LWPOLYLINE
  5
9E
330
1F
100
AcDbEntity
  8
0
  6
Continuous
 62
     7
370
    50
100
AcDbPolyline
 90
       69
 70
   128
 43
0.0
 10
512.2996099889
 20
191.1541674377
 10
512.275478846
 20
190.5375097762
 10
512.2032912955
 20
189.8982519959
 10
512.0836632163
 20
189.2418480186
 10
511.9176152329
 20
188.5738980518
 10
511.7065640081
 20
187.900100809
 10
511.4523101567
 20
187.2262048907
 10
511.1570228827
 20
186.5579597393
 10
510.8232214732
 20
185.9010665867
 10
510.4537538041
 20
185.2611298139
 10
510.0517720431
 20
184.6436091356
 10
509.6207057571
 20
184.0537730205
 10
509.1642326515
 20
183.4966537425
 10
508.6862471939
 20
182.9770044468
 10
508.1908273878
 20
182.4992585979
 10
507.6821999801
 20
182.067492155
 10
507.1647044008
 20
181.6853887971
 10
506.6427557394
 20
181.3562084953
 10
506.1208070781
 20
181.0827597
 10
505.6033114987
 20
180.8673753799
 10
505.0946840911
 20
180.7118931179
 10
504.599264285
 20
180.6176394339
 10
504.1212788274
 20
180.5854184673
 10
503.6648057218
 20
180.6155051157
 10
503.2337394357
 20
180.7076426907
 10
502.8317576748
 20
180.8610451069
 10
502.4622900056
 20
181.0744035889
 10
502.1284885961
 20
181.3458978375
 10
501.8332013222
 20
181.6732115593
 10
501.5789474707
 20
182.0535522292
 10
501.367896246
 20
182.4836749147
 10
501.2018482626
 20
182.9599099607
 10
501.0822201834
 20
183.4781942976
 10
501.0100326329
 20
184.0341061063
 10
500.9859014899
 20
184.6229025431
 10
501.0100326329
 20
185.2395602046
 10
501.0822201834
 20
185.878817985
 10
501.2018482626
 20
186.5352219622
 10
501.367896246
 20
187.2031719291
 10
501.5789474707
 20
187.8769691719
 10
501.8332013222
 20
188.5508650902
 10
502.1284885961
 20
189.2191102416
 10
502.4622900056
 20
189.8760033941
 10
502.8317576748
 20
190.515940167
 10
503.2337394357
 20
191.1334608453
 10
503.6648057218
 20
191.7232969603
 10
504.1212788274
 20
192.2804162384
 10
504.599264285
 20
192.8000655341
 10
505.0946840911
 20
193.277811383
 10
505.6033114987
 20
193.7095778259
 10
506.1208070781
 20
194.0916811838
 10
506.6427557394
 20
194.4208614855
 10
507.1647044008
 20
194.6943102808
 10
507.6821999801
 20
194.909694601
 10
508.1908273878
 20
195.065176863
 10
508.6862471939
 20
195.1594305469
 10
509.1642326515
 20
195.1916515136
 10
509.6207057571
 20
195.1615648651
 10
510.0517720431
 20
195.0694272901
 10
510.4537538041
 20
194.916024874
 10
510.8232214732
 20
194.702666392
 10
511.1570228827
 20
194.4311721434
 10
511.4523101567
 20
194.1038584215
 10
511.7065640081
 20
193.7235177516
 10
511.9176152329
 20
193.2933950661
 10
512.0836632163
 20
192.8171600202
 10
512.2032912955
 20
192.2988756833
 10
512.275478846
 20
191.7429638746
 10
512.2996099889
 20
191.1541674377
  0
LWPOLYLINE
  5
9F
330
1F
100
AcDbEntity
  8
0
  6
Continuous
 62
     7
370
    50
100
AcDbPolyline
 90
       69
 70
   128
 43
0.0
 10
1059.6002586273
 20
507.1041067131
 10
1059.5761274844
 20
506.4874490516
 10
1059.5039399339
 20
505.8481912713
 10
1059.3843118547
 20
505.191787294
 10
1059.2182638713
 20
504.5238373272
 10
1059.0072126465
 20
503.8500400844
 10
1058.7529587951
 20
503.1761441661
 10
1058.4576715211
 20
502.5078990146
 10
1058.1238701116
 20
501.8510058621
 10
1057.7544024424
 20
501.2110690892
 10
1057.3524206815
 20
500.5935484109
 10
1056.9213543955
 20
500.0037122959
 10
1056.4648812899
 20
499.4465930179
 10
1055.9868958323
 20
498.9269437222
 10
1055.4914760261
 20
498.4491978733
 10
1054.9828486185
 20
498.0174314304
 10
1054.4653530391
 20
497.6353280725
 10
1053.9434043778
 20
497.3061477707
 10
1053.4214557165
 20
497.0326989754
 10
1052.9039601371
 20
496.8173146552
 10
1052.3953327295
 20
496.6618323933
 10
1051.8999129234
 20
496.5675787093
 10
1051.4219274658
 20
496.5353577426
 10
1050.9654543602
 20
496.5654443911
 10
1050.5343880741
 20
496.6575819661
 10
1050.1324063132
 20
496.8109843823
 10
1049.762938644
 20
497.0243428643
 10
1049.4291372345
 20
497.2958371128
 10
1049.1338499606
 20
497.6231508347
 10
1048.8795961091
 20
498.0034915046
 10
1048.6685448844
 20
498.4336141901
 10
1048.502496901
 20
498.9098492361
 10
1048.3828688217
 20
499.428133573
 10
1048.3106812713
 20
499.9840453817
 10
1048.2865501283
 20
500.5728418185
 10
1048.3106812713
 20
501.18949948
 10
1048.3828688217
 20
501.8287572604
 10
1048.502496901
 20
502.4851612376
 10
1048.6685448844
 20
503.1531112044
 10
1048.8795961091
 20
503.8269084473
 10
1049.1338499606
 20
504.5008043656
 10
1049.4291372345
 20
505.169049517
 10
1049.762938644
 20
505.8259426695
 10
1050.1324063132
 20
506.4658794424
 10
1050.5343880741
 20
507.0834001207
 10
1050.9654543602
 20
507.6732362357
 10
1051.4219274658
 20
508.2303555137
 10
1051.8999129234
 20
508.7500048095
 10
1052.3953327295
 20
509.2277506584
 10
1052.9039601371
 20
509.6595171013
 10
1053.4214557165
 20
510.0416204592
 10
1053.9434043778
 20
510.3708007609
 10
1054.4653530391
 20
510.6442495562
 10
1054.9828486185
 20
510.8596338764
 10
1055.4914760261
 20
511.0151161384
 10
1055.9868958323
 20
511.1093698223
 10
1056.4648812899
 20
511.141590789
 10
1056.9213543955
 20
511.1115041405
 10
1057.3524206815
 20
511.0193665655
 10
1057.7544024424
 20
510.8659641494
 10
1058.1238701116
 20
510.6526056673
 10
1058.4576715211
 20
510.3811114188
 10
1058.7529587951
 20
510.0537976969
 10
1059.0072126465
 20
509.673457027
 10
1059.2182638713
 20
509.2433343415
 10
1059.3843118547
 20
508.7670992956
 10
1059.5039399339
 20
508.2488149587
 10
1059.5761274844
 20
507.69290315
 10
1059.6002586273
 20
507.1041067131
  0
LINE
  5
A0
330
1F
100
AcDbEntity
  8
0
  6
Continuous
 62
     7
370
    50
100
AcDbLine
 10
1279.9084931884
 20
662.2351067662
 30
0.0
 11
1279.9084931884
 21
662.2346148328
 31
0.0
  0
LINE
  5
A1
330
1F
100
AcDbEntity
  8
0
  6
Continuous
 62
     7
370
    50
100
AcDbLine
 10
1272.7930344257
 20
663.8931512401
 30
0.0
 11
1272.2929531551
 21
664.1818420127
 31
0.0
  0
LINE
  5
A2
330
1F
100
AcDbEntity
  8
0
  6
Continuous
 62
     7
370
    50
100
AcDbLine
 10
1272.2929531551
 20
666.6314644483
 30
0.0
 11
1272.2929531551
 21
664.1818420127
 31
0.0
  0
LINE
  5
A3
330
1F
100
AcDbEntity
  8
0
  6
Continuous
 62
     7
370
    50
100
AcDbLine
 10
1279.9084931884
 20
662.2351067662
 30
0.0
 11
1272.2929531551
 21
666.6314644483
 31
0.0
  0
LINE
  5
A4
330
1F
100
AcDbEntity
  8
0
  6
Continuous
 62
     7
370
    50
100
AcDbLine
 10
268.494217089
 20
84.7011662747
 30
0.0
 11
1272.2929531551
 21
664.1818420127
 31
0.0
  0
LINE
  5
A5
330
1F
100
AcDbEntity
  8
0
  6
Continuous
 62
     7
370
    50
100
AcDbLine
 10
268.494217089
 20
87.1507887104
 30
0.0
 11
268.494217089
 21
84.7011662747
 31
0.0
  0
LINE
  5
A6
330
1F
100
AcDbEntity
  8
0
  6
Continuous
 62
     7
370
    50
100
AcDbLine
 10
268.494217089
 20
87.1507887104
 30
0.0
 11
1272.2929531551
 21
666.6314644483
 31
0.0
  0
LINE
  5
A7
330
1F
100
AcDbEntity
  8
0
  6
Continuous
 62
     7
370
    50
100
AcDbLine
 10
1272.7929531551
 20
655.6777705044
 30
0.0
 11
276.1097571224
 21
80.3048085925
 31
0.0
  0
LINE
  5
A8
330
1F
100
AcDbEntity
  8
0
  6
Continuous
 62
     7
370
    50
100
AcDbLine
 10
276.1097571224
 20
80.3048085925
 30
0.0
 11
268.494217089
 21
84.7011662747
 31
0.0
  0
ARC
  5
A9
330
1F
100
AcDbEntity
  8
0
  6
Continuous
 62
     7
370
    50
100
AcDbCircle
 10
274.6856742316
 20
74.0343070643
 30
0.0
 40
6.430178962916537
100
AcDbArc
 50
31.3399482433
 51
77.2046929686
  0
LWPOLYLINE
  5
AA
330
1F
100
AcDbEntity
  8
0
  6
Continuous
 62
     7
370
    50
100
AcDbPolyline
 90
       41
 70
   128
 43
0.0
 10
1059.5169912838
 20
505.9393576372
 10
1059.5027510891
 20
506.0061323623
 10
1059.3820160001
 20
506.4203724803
 10
1059.2151179095
 20
506.7893102231
 10
1059.0041556577
 20
507.1083059844
 10
1058.7517822173
 20
507.3733482076
 10
1058.4611713308
 20
507.5811038329
 10
1058.1359775987
 20
507.7289602127
 10
1057.7802905209
 20
507.8150579673
 10
1057.3985830688
 20
507.8383143674
 10
1056.9956554349
 20
507.7984369504
 10
1056.5765746682
 20
507.6959271979
 10
1056.1466109525
 20
507.5320742295
 10
1055.7111713308
 20
507.3089385914
 10
1055.2757317091
 20
507.0293263437
 10
1054.8457679933
 20
506.6967537725
 10
1054.4266872266
 20
506.315403171
 10
1054.0237595928
 20
505.8900702443
 10
1053.6420521407
 20
505.4261038007
 10
1053.2863650629
 20
504.9293384874
 10
1052.9611713308
 20
504.4060214164
 10
1052.6705604443
 20
503.8627336036
 10
1052.4181870039
 20
503.3063072084
 10
1052.2072247521
 20
502.7437396157
 10
1052.0403266615
 20
502.1821054392
 10
1051.9195915725
 20
501.6284675546
 10
1051.8465377989
 20
501.0897882796
 10
1051.8220840343
 20
500.5728418185
 10
1051.8465377989
 20
500.0841290732
 10
1051.9195915725
 20
499.6297958898
 10
1052.0403266615
 20
499.2155557718
 10
1052.2072247521
 20
498.846618029
 10
1052.4181870039
 20
498.5276222677
 10
1052.6705604443
 20
498.2625800445
 10
1052.9611713308
 20
498.0548244192
 10
1053.2863650629
 20
497.9069680394
 10
1053.6420521407
 20
497.8208702848
 10
1054.0237595928
 20
497.7976138846
 10
1054.4266872266
 20
497.8374913016
 10
1054.8457679933
 20
497.9400010541
 10
1054.9113309701
 20
497.961255531
  0
ARC
  5
AB
330
1F
100
AcDbEntity
  8
0
  6
Continuous
 62
     7
370
    50
100
AcDbCircle
 10
1054.9430862158
 20
500.084382509
 30
0.0
 40
2.782019387800412
100
AcDbArc
 50
174.1334070511
 51
229.7041399655
  0
LWPOLYLINE
  5
AC
330
1F
100
AcDbEntity
  8
0
  6
Continuous
 62
     7
370
    50
100
AcDbPolyline
 90
       22
 70
   128
 43
0.0
 10
1058.6320382283
 20
507.4693318055
 10
1058.4895309893
 20
507.5248581847
 10
1058.1338439115
 20
507.6109559393
 10
1057.7521364594
 20
507.6342123395
 10
1057.3492088255
 20
507.5943349225
 10
1056.9301280588
 20
507.49182517
 10
1056.5001643431
 20
507.3279722016
 10
1056.0647247214
 20
507.1048365635
 10
1055.6292850997
 20
506.8252243157
 10
1055.1993213839
 20
506.4926517446
 10
1054.7802406172
 20
506.1113011431
 10
1054.3773129834
 20
505.6859682164
 10
1053.9956055313
 20
505.2220017727
 10
1053.6399184535
 20
504.7252364594
 10
1053.3147247214
 20
504.2019193884
 10
1053.0241138349
 20
503.6586315756
 10
1052.7717403945
 20
503.1022051805
 10
1052.5607781427
 20
502.5396375877
 10
1052.3938800521
 20
501.9780034112
 10
1052.2731449631
 20
501.4243655266
 10
1052.2000911895
 20
500.8856862516
 10
1052.1756374249
 20
500.3687397906
  0
LINE
  5
AD
330
1F
100
AcDbEntity
  8
0
  6
Continuous
 62
     7
370
    50
100
AcDbLine
 10
991.7180076334
 20
476.8984662764
 30
0.0
 11
993.839327977
 21
475.6738541086
 31
0.0
  0
ARC
  5
AE
330
1F
100
AcDbEntity
  8
0
  6
Continuous
 62
     7
370
    50
100
AcDbCircle
 10
997.3046657749
 20
470.4114031644
 30
0.0
 40
6.300948816933328
100
AcDbArc
 50
82.060452729
 51
123.365009057
  0
LINE
  5
AF
330
1F
100
AcDbEntity
  8
0
  6
Continuous
 62
     7
370
    50
100
AcDbLine
 10
879.9951362059
 20
412.4022254424
 30
0.0
 11
882.1164565495
 21
411.1776132746
 31
0.0
  0
LINE
  5
B0
330
1F
100
AcDbEntity
  8
0
  6
Continuous
 62
     7
370
    50
100
AcDbLine
 10
993.839327977
 20
475.6738541086
 30
0.0
 11
882.1164565495
 21
411.1776132746
 31
0.0
  0
LWPOLYLINE
  5
B1
330
1F
100
AcDbEntity
  8
0
  6
Continuous
 62
     7
370
    50
100
AcDbPolyline
 90
       28
 70
   128
 43
0.0
 10
882.1164565495
 20
411.1776132746
 10
881.4905735291
 20
410.787173005
 10
880.8687496003
 20
410.3410135049
 10
880.2550175298
 20
409.8420282899
 10
879.6533576057
 20
409.2934534705
 10
879.0676718234
 20
408.698846765
 10
878.5017585799
 20
408.062064426
 10
877.9592880398
 20
407.3872362313
 10
877.4437783328
 20
406.6787387008
 10
876.9585727371
 20
405.9411667128
 10
876.5068179971
 20
405.1793037047
 10
876.0914439158
 20
404.3980906504
 10
875.7151443533
 20
403.6025940163
 10
875.3803597568
 20
402.7979729034
 10
875.0892613329
 20
401.9894455885
 10
874.8437369665
 20
401.1822556812
 10
874.6453789774
 20
400.381638118
 10
874.4954737933
 20
399.592785211
 10
874.3949936067
 20
398.820812974
 10
874.3445900703
 20
398.0707279432
 10
874.3445900703
 20
397.3473947077
 10
874.3949936067
 20
396.6555043614
 10
874.4954737933
 20
395.9995440784
 10
874.6453789774
 20
395.383768013
 10
874.8437369665
 20
394.8121697092
 10
875.0892613329
 20
394.2884562014
 10
875.3803597568
 20
393.8160239727
 10
875.6594597358
 20
393.4602283419
  0
LINE
  5
B2
330
1F
100
AcDbEntity
  8
0
  6
Continuous
 62
     7
370
    50
100
AcDbLine
 10
836.1545157724
 20
387.0935739759
 30
0.0
 11
838.2758361159
 21
385.8689618081
 31
0.0
  0
ARC
  5
B3
330
1F
100
AcDbEntity
  8
0
  6
Continuous
 62
     7
370
    50
100
AcDbCircle
 10
841.7411739138
 20
380.6065108639
 30
0.0
 40
6.300948816932898
100
AcDbArc
 50
82.0604527289
 51
123.365009057
  0
LINE
  5
B4
330
1F
100
AcDbEntity
  8
0
  6
Continuous
 62
     7
370
    50
100
AcDbLine
 10
724.4316443449
 20
322.5973331419
 30
0.0
 11
726.5529646884
 21
321.3727209741
 31
0.0
  0
LINE
  5
B5
330
1F
100
AcDbEntity
  8
0
  6
Continuous
 62
     7
370
    50
100
AcDbLine
 10
838.2758361159
 20
385.8689618081
 30
0.0
 11
726.5529646884
 21
321.3727209741
 31
0.0
  0
LWPOLYLINE
  5
B6
330
1F
100
AcDbEntity
  8
0
  6
Continuous
 62
     7
370
    50
100
AcDbPolyline
 90
       28
 70
   128
 43
0.0
 10
726.5529646884
 20
321.3727209741
 10
725.9270816681
 20
320.9822807045
 10
725.3052577392
 20
320.5361212044
 10
724.6915256688
 20
320.0371359894
 10
724.0898657446
 20
319.48856117
 10
723.5041799623
 20
318.8939544645
 10
722.9382667189
 20
318.2571721255
 10
722.3957961788
 20
317.5823439308
 10
721.8802864718
 20
316.8738464003
 10
721.395080876
 20
316.1362744123
 10
720.9433261361
 20
315.3744114042
 10
720.5279520547
 20
314.5931983499
 10
720.1516524923
 20
313.7977017158
 10
719.8168678958
 20
312.9930806029
 10
719.5257694719
 20
312.184553288
 10
719.2802451055
 20
311.3773633807
 10
719.0818871164
 20
310.5767458175
 10
718.9319819322
 20
309.7878929105
 10
718.8315017456
 20
309.0159206735
 10
718.7810982092
 20
308.2658356427
 10
718.7810982092
 20
307.5425024073
 10
718.8315017456
 20
306.8506120609
 10
718.9319819322
 20
306.1946517779
 10
719.0818871164
 20
305.5788757125
 10
719.2802451055
 20
305.0072774087
 10
719.5257694719
 20
304.4835639009
 10
719.8168678958
 20
304.0111316722
 10
720.0959678747
 20
303.6553360414
  0
LINE
  5
B7
330
1F
100
AcDbEntity
  8
0
  6
Continuous
 62
     7
370
    50
100
AcDbLine
 10
680.5910239113
 20
297.2886816754
 30
0.0
 11
682.7123442549
 21
296.0640695076
 31
0.0
  0
ARC
  5
B8
330
1F
100
AcDbEntity
  8
0
  6
Continuous
 62
     7
370
    50
100
AcDbCircle
 10
686.1776820528
 20
290.8016185634
 30
0.0
 40
6.300948816931954
100
AcDbArc
 50
82.0604527289
 51
123.365009057
  0
LINE
  5
B9
330
1F
100
AcDbEntity
  8
0
  6
Continuous
 62
     7
370
    50
100
AcDbLine
 10
568.8681524838
 20
232.7924408414
 30
0.0
 11
570.9894728274
 21
231.5678286736
 31
0.0
  0
LINE
  5
BA
330
1F
100
AcDbEntity
  8
0
  6
Continuous
 62
     7
370
    50
100
AcDbLine
 10
682.7123442549
 20
296.0640695076
 30
0.0
 11
570.9894728274
 21
231.5678286736
 31
0.0
  0
LWPOLYLINE
  5
BB
330
1F
100
AcDbEntity
  8
0
  6
Continuous
 62
     7
370
    50
100
AcDbPolyline
 90
       28
 70
   128
 43
0.0
 10
570.9894728274
 20
231.5678286736
 10
570.363589807
 20
231.177388404
 10
569.7417658782
 20
230.7312289039
 10
569.1280338077
 20
230.2322436889
 10
568.5263738836
 20
229.6836688695
 10
567.9406881013
 20
229.089062164
 10
567.3747748578
 20
228.452279825
 10
566.8323043178
 20
227.7774516303
 10
566.3167946107
 20
227.0689540998
 10
565.831589015
 20
226.3313821118
 10
565.379834275
 20
225.5695191037
 10
564.9644601937
 20
224.7883060494
 10
564.5881606312
 20
223.9928094153
 10
564.2533760348
 20
223.1881883024
 10
563.9622776108
 20
222.3796609875
 10
563.7167532445
 20
221.5724710802
 10
563.5183952554
 20
220.771853517
 10
563.3684900712
 20
219.98300061
 10
563.2680098846
 20
219.211028373
 10
563.2176063482
 20
218.4609433422
 10
563.2176063482
 20
217.7376101068
 10
563.2680098846
 20
217.0457197604
 10
563.3684900712
 20
216.3897594774
 10
563.5183952554
 20
215.773983412
 10
563.7167532445
 20
215.2023851082
 10
563.9622776108
 20
214.6786716004
 10
564.2533760348
 20
214.2062393717
 10
564.5324760137
 20
213.8504437409
  0
LWPOLYLINE
  5
BC
330
1F
100
AcDbEntity
  8
0
  6
Continuous
 62
     7
370
    50
100
AcDbPolyline
 90
       41
 70
   128
 43
0.0
 10
512.2163426393
 20
189.9894183921
 10
512.2021024507
 20
190.0561930869
 10
512.0813673617
 20
190.4704332049
 10
511.9144692711
 20
190.8393709477
 10
511.7035070193
 20
191.158366709
 10
511.4511335789
 20
191.4234089322
 10
511.1605226924
 20
191.6311645575
 10
510.8353289603
 20
191.7790209373
 10
510.4796418825
 20
191.8651186919
 10
510.0979344304
 20
191.8883750921
 10
509.6950067966
 20
191.8484976751
 10
509.2759260299
 20
191.7459879226
 10
508.8459623141
 20
191.5821349542
 10
508.4105226924
 20
191.358999316
 10
507.9750830707
 20
191.0793870683
 10
507.5451193549
 20
190.7468144971
 10
507.1260385882
 20
190.3654638957
 10
506.7231109544
 20
189.9401309689
 10
506.3414035023
 20
189.4761645253
 10
505.9857164245
 20
188.979399212
 10
505.6605226924
 20
188.456082141
 10
505.3699118059
 20
187.9127943282
 10
505.1175383655
 20
187.356367933
 10
504.9065761137
 20
186.7938003403
 10
504.7396780231
 20
186.2321661638
 10
504.6189429341
 20
185.6785282792
 10
504.5458891605
 20
185.1398490042
 10
504.5214353959
 20
184.6229025431
 10
504.5458891605
 20
184.1341897978
 10
504.6189429341
 20
183.6798566144
 10
504.7396780231
 20
183.2656164964
 10
504.9065761137
 20
182.8966787536
 10
505.1175383655
 20
182.5776829923
 10
505.3699118059
 20
182.3126407691
 10
505.6605226924
 20
182.1048851438
 10
505.9857164245
 20
181.957028764
 10
506.3414035023
 20
181.8709310094
 10
506.7231109544
 20
181.8476746092
 10
507.1260385882
 20
181.8875520262
 10
507.5451193549
 20
181.9900617788
 10
507.6106823048
 20
182.0113162467
  0
LWPOLYLINE
  5
BD
330
1F
100
AcDbEntity
  8
0
  6
Continuous
 62
     7
370
    50
100
AcDbPolyline
 90
       29
 70
   128
 43
0.0
 10
511.3313895898
 20
191.5193925302
 10
511.1888823509
 20
191.5749189093
 10
510.8331952731
 20
191.6610166639
 10
510.451487821
 20
191.6842730641
 10
510.0485601872
 20
191.6443956471
 10
509.6294794205
 20
191.5418858946
 10
509.1995157047
 20
191.3780329262
 10
508.764076083
 20
191.1548972881
 10
508.3286364613
 20
190.8752850403
 10
507.8986727455
 20
190.5427124692
 10
507.4795919788
 20
190.1613618677
 10
507.076664345
 20
189.736028941
 10
506.6949568929
 20
189.2720624973
 10
506.3392698151
 20
188.775297184
 10
506.014076083
 20
188.2519801131
 10
505.7234651965
 20
187.7086923003
 10
505.4710917561
 20
187.1522659051
 10
505.2601295043
 20
186.5896983123
 10
505.0932314137
 20
186.0280641358
 10
504.9724963247
 20
185.4744262512
 10
504.8994425511
 20
184.9357469762
 10
504.8749887865
 20
184.4188005152
 10
504.8994425511
 20
183.9300877698
 10
504.9724963247
 20
183.4757545864
 10
505.0932314137
 20
183.0615144684
 10
505.2601295043
 20
182.6925767257
 10
505.4710917561
 20
182.3735809643
 10
505.7234651965
 20
182.1085387411
 10
505.8432091855
 20
182.0125551433
  0
LINE
  5
BE
330
1F
100
AcDbEntity
  8
0
  6
Continuous
 62
     7
370
    50
100
AcDbLine
 10
268.4942983596
 20
38.9749277257
 30
0.0
 11
267.994217089
 21
39.2636184983
 31
0.0
  0
LINE
  5
BF
330
1F
100
AcDbEntity
  8
0
  6
Continuous
 62
     7
370
    50
100
AcDbLine
 10
268.494217089
 20
36.5257503068
 30
0.0
 11
265.8728967454
 21
38.0390063305
 31
0.0
  0
LINE
  5
C0
330
1F
100
AcDbEntity
  8
0
  6
Continuous
 62
     7
370
    50
100
AcDbLine
 10
265.8728967454
 20
38.0390063305
 30
0.0
 11
267.994217089
 21
39.2636184983
 31
0.0
  0
LINE
  5
C1
330
1F
100
AcDbEntity
  8
0
  6
Continuous
 62
     7
370
    50
100
AcDbLine
 10
267.994217089
 20
39.2636184983
 30
0.0
 11
267.994217089
 21
83.8351408735
 31
0.0
  0
LINE
  5
C2
330
1F
100
AcDbEntity
  8
0
  6
Continuous
 62
     7
370
    50
100
AcDbLine
 10
275.6097571224
 20
79.4387831913
 30
0.0
 11
267.994217089
 21
83.8351408735
 31
0.0
  0
LINE
  5
C3
330
1F
100
AcDbEntity
  8
0
  6
Continuous
 62
     7
370
    50
100
AcDbLine
 10
275.6097571224
 20
79.4387831913
 30
0.0
 11
275.6097571224
 21
43.0825946352
 31
0.0
  0
LINE
  5
C4
330
1F
100
AcDbEntity
  8
0
  6
Continuous
 62
     7
370
    50
100
AcDbLine
 10
265.8728967454
 20
82.6105287057
 30
0.0
 11
267.994217089
 21
83.8351408735
 31
0.0
  0
LINE
  5
C5
330
1F
100
AcDbEntity
  8
0
  6
Continuous
 62
     7
370
    50
100
AcDbLine
 10
265.8728967454
 20
38.0390063305
 30
0.0
 11
265.8728967454
 21
82.6105287057
 31
0.0
  0
ARC
  5
C6
330
1F
100
AcDbEntity
  8
0
  6
Continuous
 62
     7
370
    50
100
AcDbCircle
 10
280.3265604076
 20
83.803317704
 30
0.0
 40
6.426304905942374
100
AcDbArc
 50
222.778587235
 51
268.6723737034
  0
LINE
  5
C7
330
1F
100
AcDbEntity
  8
0
  6
Continuous
 62
     7
370
    50
100
AcDbLine
 10
93.3847990889
 20
807.9538461538
 30
0.0
 11
93.3847990889
 21
810.9538461538
 31
0.0
  0
LINE
  5
C8
330
1F
100
AcDbEntity
  8
0
  6
Continuous
 62
     7
370
    50
100
AcDbLine
 10
1512.9705855265
 20
807.9538461538
 30
0.0
 11
1512.9705855265
 21
810.9538461538
 31
0.0
  0
LINE
  5
C9
330
1F
100
AcDbEntity
  8
0
  6
Continuous
 62
     7
370
    50
100
AcDbLine
 10
1512.9705855265
 20
807.9538461538
 30
0.0
 11
93.3847990889
 21
807.9538461538
 31
0.0
  0
LINE
  5
CA
330
1F
100
AcDbEntity
  8
0
  6
Continuous
 62
     7
370
    50
100
AcDbLine
 10
1512.9705855265
 20
810.9538461538
 30
0.0
 11
93.3847990889
 21
810.9538461538
 31
0.0
  0
LINE
  5
CB
330
1F
100
AcDbEntity
  8
0
  6
Continuous
 62
     7
370
    50
100
AcDbLine
 10
89.6776923077
 20
866.2467393727
 30
0.0
 11
92.6776923077
 21
866.2467393727
 31
0.0
  0
LINE
  5
CC
330
1F
100
AcDbEntity
  8
0
  6
Continuous
 62
     7
370
    50
100
AcDbLine
 10
89.6776923077
 20
811.660952935
 30
0.0
 11
92.6776923077
 21
811.660952935
 31
0.0
  0
LINE
  5
CD
330
1F
100
AcDbEntity
  8
0
  6
Continuous
 62
     7
370
    50
100
AcDbLine
 10
89.6776923077
 20
811.660952935
 30
0.0
 11
89.6776923077
 21
866.2467393727
 31
0.0
  0
LINE
  5
CE
330
1F
100
AcDbEntity
  8
0
  6
Continuous
 62
     7
370
    50
100
AcDbLine
 10
92.6776923077
 20
811.660952935
 30
0.0
 11
92.6776923077
 21
866.2467393727
 31
0.0
  0
LINE
  5
CF
330
1F
100
AcDbEntity
  8
0
  6
Continuous
 62
     7
370
    50
100
AcDbLine
 10
1512.9705855265
 20
869.9538461538
 30
0.0
 11
1512.9705855265
 21
866.9538461538
 31
0.0
  0
LINE
  5
D0
330
1F
100
AcDbEntity
  8
0
  6
Continuous
 62
     7
370
    50
100
AcDbLine
 10
93.3847990889
 20
869.9538461538
 30
0.0
 11
93.3847990889
 21
866.9538461538
 31
0.0
  0
LINE
  5
D1
330
1F
100
AcDbEntity
  8
0
  6
Continuous
 62
     7
370
    50
100
AcDbLine
 10
93.3847990889
 20
869.9538461538
 30
0.0
 11
1512.9705855265
 21
869.9538461538
 31
0.0
  0
LINE
  5
D2
330
1F
100
AcDbEntity
  8
0
  6
Continuous
 62
     7
370
    50
100
AcDbLine
 10
93.3847990889
 20
866.9538461538
 30
0.0
 11
1512.9705855265
 21
866.9538461538
 31
0.0
  0
LINE
  5
D3
330
1F
100
AcDbEntity
  8
0
  6
Continuous
 62
     7
370
    50
100
AcDbLine
 10
1516.6776923077
 20
811.660952935
 30
0.0
 11
1513.6776923077
 21
811.660952935
 31
0.0
  0
LINE
  5
D4
330
1F
100
AcDbEntity
  8
0
  6
Continuous
 62
     7
370
    50
100
AcDbLine
 10
1516.6776923077
 20
866.2467393727
 30
0.0
 11
1516.6776923077
 21
811.660952935
 31
0.0
  0
LINE
  5
D5
330
1F
100
AcDbEntity
  8
0
  6
Continuous
 62
     7
370
    50
100
AcDbLine
 10
1513.6776923077
 20
866.2467393727
 30
0.0
 11
1513.6776923077
 21
811.660952935
 31
0.0
  0
LINE
  5
D6
330
1F
100
AcDbEntity
  8
0
  6
Continuous
 62
     7
370
    50
100
AcDbLine
 10
1516.6776923077
 20
866.2467393727
 30
0.0
 11
1513.6776923077
 21
866.2467393727
 31
0.0
  0
LINE
  5
D7
330
1F
100
AcDbEntity
  8
0
  6
Continuous
 62
     7
370
    50
100
AcDbLine
 10
95.9076923077
 20
814.1838461538
 30
0.0
 11
95.9076923077
 21
863.7238461538
 31
0.0
  0
LWPOLYLINE
  5
D8
330
1F
100
AcDbEntity
  8
0
  6
Continuous
 62
     7
370
    50
100
AcDbPolyline
 90
        9
 70
   128
 43
0.0
 10
95.9076923077
 20
863.7238461538
 10
95.2117744624
 20
864.0727098693
 10
94.5482379234
 20
864.4215790543
 10
94.0233097639
 20
864.7244741143
 10
93.5646961493
 20
865.027368503
 10
93.1898810703
 20
865.3301837931
 10
92.9106600148
 20
865.6329971021
 10
92.7369248363
 20
865.9398693028
 10
92.6776923077
 20
866.2467393727
  0
LWPOLYLINE
  5
D9
330
1F
100
AcDbEntity
  8
0
  6
Continuous
 62
     7
370
    50
100
AcDbPolyline
 90
        9
 70
   128
 43
0.0
 10
92.6776923077
 20
811.660952935
 10
92.7543450549
 20
812.0098166505
 10
92.977712141
 20
812.3586858355
 10
93.2848781842
 20
812.6615808955
 10
93.6843459556
 20
812.9644752842
 10
94.1631128677
 20
813.2672905743
 10
94.7032432904
 20
813.5701038833
 10
95.2943935669
 20
813.8769760839
 10
95.9076923077
 20
814.1838461538
  0
LINE
  5
DA
330
1F
100
AcDbEntity
  8
0
  6
Continuous
 62
     7
370
    50
100
AcDbLine
 10
1510.4476923077
 20
863.7238461538
 30
0.0
 11
1510.4476923077
 21
814.1838461538
 31
0.0
  0
LWPOLYLINE
  5
DB
330
1F
100
AcDbEntity
  8
0
  6
Continuous
 62
     7
370
    50
100
AcDbPolyline
 90
        9
 70
   128
 43
0.0
 10
1510.4476923077
 20
814.1838461538
 10
1511.143610153
 20
813.8349824384
 10
1511.807146692
 20
813.4861132534
 10
1512.3320748515
 20
813.1832181934
 10
1512.7906884661
 20
812.8803238046
 10
1513.1655035451
 20
812.5775085146
 10
1513.4447246006
 20
812.2746952056
 10
1513.6184597791
 20
811.9678230049
 10
1513.6776923077
 20
811.660952935
  0
LWPOLYLINE
  5
DC
330
1F
100
AcDbEntity
  8
0
  6
Continuous
 62
     7
370
    50
100
AcDbPolyline
 90
        9
 70
   128
 43
0.0
 10
1513.6776923077
 20
866.2467393727
 10
1513.6046477956
 20
865.9045180864
 10
1513.3776724744
 20
865.5490064722
 10
1513.0759478206
 20
865.2504556991
 10
1512.6710386598
 20
864.9432170235
 10
1512.1998431018
 20
864.6447416628
 10
1511.652141325
 20
864.3375884244
 10
1511.0699904499
 20
864.0352325388
 10
1510.4476923077
 20
863.7238461538
  0
LINE
  5
DD
330
1F
100
AcDbEntity
  8
0
  6
Continuous
 62
     7
370
    50
100
AcDbLine
 10
95.9076923077
 20
863.7238461538
 30
0.0
 11
1510.4476923077
 21
863.7238461538
 31
0.0
  0
LWPOLYLINE
  5
DE
330
1F
100
AcDbEntity
  8
0
  6
Continuous
 62
     7
370
    50
100
AcDbPolyline
 90
        9
 70
   128
 43
0.0
 10
1510.4476923077
 20
863.7238461538
 10
1510.7965560232
 20
864.4197639992
 10
1511.1454252082
 20
865.0833005381
 10
1511.4483202681
 20
865.6082286977
 10
1511.7512146569
 20
866.0668423123
 10
1512.054029947
 20
866.4416573913
 10
1512.356843256
 20
866.7208784467
 10
1512.6637154566
 20
866.8946136252
 10
1512.9705855265
 20
866.9538461538
  0
LWPOLYLINE
  5
DF
330
1F
100
AcDbEntity
  8
0
  6
Continuous
 62
     7
370
    50
100
AcDbPolyline
 90
        9
 70
   128
 43
0.0
 10
93.3847990889
 20
866.9538461538
 10
93.7336628044
 20
866.8771934066
 10
94.0825319894
 20
866.6538263205
 10
94.3854270493
 20
866.3466602773
 10
94.6883214381
 20
865.947192506
 10
94.9911367282
 20
865.4684255938
 10
95.2939500372
 20
864.9282951712
 10
95.6008222378
 20
864.3371448946
 10
95.9076923077
 20
863.7238461538
  0
LINE
  5
E0
330
1F
100
AcDbEntity
  8
0
  6
Continuous
 62
     7
370
    50
100
AcDbLine
 10
1510.4476923077
 20
814.1838461538
 30
0.0
 11
95.9076923077
 21
814.1838461538
 31
0.0
  0
LWPOLYLINE
  5
E1
330
1F
100
AcDbEntity
  8
0
  6
Continuous
 62
     7
370
    50
100
AcDbPolyline
 90
        9
 70
   128
 43
0.0
 10
95.9076923077
 20
814.1838461538
 10
95.5654710215
 20
813.5008146411
 10
95.2099594072
 20
812.8243917696
 10
94.9114086342
 20
812.3063017579
 10
94.6041699585
 20
811.8408499954
 10
94.3056945978
 20
811.4703857074
 10
93.9985413594
 20
811.186813861
 10
93.6961854738
 20
811.0143595989
 10
93.3847990889
 20
810.9538461538
  0
LWPOLYLINE
  5
E2
330
1F
100
AcDbEntity
  8
0
  6
Continuous
 62
     7
370
    50
100
AcDbPolyline
 90
        9
 70
   128
 43
0.0
 10
1512.9705855265
 20
810.9538461538
 10
1512.621721811
 20
811.0304989011
 10
1512.272852626
 20
811.2538659872
 10
1511.9699575661
 20
811.5610320304
 10
1511.6670631773
 20
811.9604998017
 10
1511.3642478872
 20
812.4392667139
 10
1511.0614345782
 20
812.9793971365
 10
1510.7545623776
 20
813.5705474131
 10
1510.4476923077
 20
814.1838461538
  0
CIRCLE
  5
E3
330
1F
100
AcDbEntity
  8
0
  6
Continuous
 62
     7
370
    50
100
AcDbCircle
 10
416.1776923077
 20
838.9538461538
 30
0.0
 40
5.5
  0
CIRCLE
  5
E4
330
1F
100
AcDbEntity
  8
0
  6
Continuous
 62
     7
370
    50
100
AcDbCircle
 10
416.1776923077
 20
838.9538461538
 30
0.0
 40
8.0
  0
LINE
  5
E5
330
1F
100
AcDbEntity
  8
0
  6
Continuous
 62
     7
370
    50
100
AcDbLine
 10
944.1776923077
 20
827.9538461538
 30
0.0
 11
1102.1776923077
 21
827.9538461538
 31
0.0
  0
ARC
  5
E6
330
1F
100
AcDbEntity
  8
0
  6
Continuous
 62
     7
370
    50
100
AcDbCircle
 10
1102.1776923077
 20
838.9538461538
 30
0.0
 40
11.0
100
AcDbArc
 50
270.0
 51
90.0
  0
LINE
  5
E7
330
1F
100
AcDbEntity
  8
0
  6
Continuous
 62
     7
370
    50
100
AcDbLine
 10
1102.1776923077
 20
849.9538461538
 30
0.0
 11
944.1776923077
 21
849.9538461538
 31
0.0
  0
ARC
  5
E8
330
1F
100
AcDbEntity
  8
0
  6
Continuous
 62
     7
370
    50
100
AcDbCircle
 10
944.1776923077
 20
838.9538461538
 30
0.0
 40
11.0
100
AcDbArc
 50
90.0
 51
270.0
  0
LINE
  5
E9
330
1F
100
AcDbEntity
  8
0
  6
Continuous
 62
     7
370
    50
100
AcDbLine
 10
504.1776923077
 20
827.9538461538
 30
0.0
 11
662.1776923077
 21
827.9538461538
 31
0.0
  0
ARC
  5
EA
330
1F
100
AcDbEntity
  8
0
  6
Continuous
 62
     7
370
    50
100
AcDbCircle
 10
662.1776923077
 20
838.9538461538
 30
0.0
 40
11.0
100
AcDbArc
 50
270.0
 51
90.0
  0
LINE
  5
EB
330
1F
100
AcDbEntity
  8
0
  6
Continuous
 62
     7
370
    50
100
AcDbLine
 10
662.1776923077
 20
849.9538461538
 30
0.0
 11
504.1776923077
 21
849.9538461538
 31
0.0
  0
ARC
  5
EC
330
1F
100
AcDbEntity
  8
0
  6
Continuous
 62
     7
370
    50
100
AcDbCircle
 10
504.1776923077
 20
838.9538461538
 30
0.0
 40
11.0
100
AcDbArc
 50
90.0
 51
270.0
  0
LINE
  5
ED
330
1F
100
AcDbEntity
  8
0
  6
Continuous
 62
     7
370
    50
100
AcDbLine
 10
724.1776923077
 20
827.9538461538
 30
0.0
 11
882.1776923077
 21
827.9538461538
 31
0.0
  0
ARC
  5
EE
330
1F
100
AcDbEntity
  8
0
  6
Continuous
 62
     7
370
    50
100
AcDbCircle
 10
882.1776923077
 20
838.9538461538
 30
0.0
 40
11.0
100
AcDbArc
 50
270.0
 51
90.0
  0
LINE
  5
EF
330
1F
100
AcDbEntity
  8
0
  6
Continuous
 62
     7
370
    50
100
AcDbLine
 10
882.1776923077
 20
849.9538461538
 30
0.0
 11
724.1776923077
 21
849.9538461538
 31
0.0
  0
ARC
  5
F0
330
1F
100
AcDbEntity
  8
0
  6
Continuous
 62
     7
370
    50
100
AcDbCircle
 10
724.1776923077
 20
838.9538461538
 30
0.0
 40
11.0
100
AcDbArc
 50
90.0
 51
270.0
  0
CIRCLE
  5
F1
330
1F
100
AcDbEntity
  8
0
  6
Continuous
 62
     7
370
    50
100
AcDbCircle
 10
1190.1776923077
 20
838.9538461538
 30
0.0
 40
8.0
  0
CIRCLE
  5
F2
330
1F
100
AcDbEntity
  8
0
  6
Continuous
 62
     7
370
    50
100
AcDbCircle
 10
1190.1776923077
 20
838.9538461538
 30
0.0
 40
5.500000000000227
  0
LINE
  5
F3
330
1F
100
AcDbEntity
  8
0
  6
Continuous
 62
     7
370
    50
100
AcDbLine
 10
93.3847990889
 20
921.4223076923
 30
0.0
 11
93.3847990889
 21
932.1923076923
 31
0.0
  0
LINE
  5
F4
330
1F
100
AcDbEntity
  8
0
  6
Continuous
 62
     7
370
    50
100
AcDbLine
 10
1512.9705855265
 20
932.1923076923
 30
0.0
 11
93.3847990889
 21
932.1923076923
 31
0.0
  0
LINE
  5
F5
330
1F
100
AcDbEntity
  8
0
  6
Continuous
 62
     7
370
    50
100
AcDbLine
 10
1512.9705855265
 20
921.4223076923
 30
0.0
 11
1512.9705855265
 21
932.1923076923
 31
0.0
  0
LINE
  5
F6
330
1F
100
AcDbEntity
  8
0
  6
Continuous
 62
     7
370
    50
100
AcDbLine
 10
1512.9705855265
 20
921.4223076923
 30
0.0
 11
93.3847990889
 21
921.4223076923
 31
0.0
  0
LWPOLYLINE
  5
F7
330
1F
100
AcDbEntity
  8
0
  6
Continuous
 62
     7
370
    50
100
AcDbPolyline
 90
       10
 70
   128
 43
0.0
 10
1512.9705855265
 20
921.4223076923
 10
1512.6947785693
 20
920.3577371828
 10
1512.4109619977
 20
919.29523159
 10
1512.135119362
 20
918.3258099053
 10
1511.8512720671
 20
917.4235923675
 10
1511.575427344
 20
916.6659790349
 10
1511.2915796245
 20
916.0326393375
 10
1511.0157375573
 20
915.5779072465
 10
1510.7318856049
 20
915.2895799569
 10
1510.4476923077
 20
915.1923076923
  0
LINE
  5
F8
330
1F
100
AcDbEntity
  8
0
  6
Continuous
 62
     7
370
    50
100
AcDbLine
 10
1510.4476923077
 20
915.1923076923
 30
0.0
 11
95.9076923077
 21
915.1923076923
 31
0.0
  0
LWPOLYLINE
  5
F9
330
1F
100
AcDbEntity
  8
0
  6
Continuous
 62
     7
370
    50
100
AcDbPolyline
 90
       10
 70
   128
 43
0.0
 10
95.9076923077
 20
915.1923076923
 10
95.6318853505
 20
915.2839374175
 10
95.3480687789
 20
915.5666738876
 10
95.0722261432
 20
916.0163293854
 10
94.7883788483
 20
916.6449469407
 10
94.5125341252
 20
917.3985982467
 10
94.2286864057
 20
918.2975076947
 10
93.9528443385
 20
919.2645580708
 10
93.668992386
 20
920.3256990461
 10
93.3847990889
 20
921.4223076923
  0
LINE
  5
FA
330
1F
100
AcDbEntity
  8
0
  6
Continuous
 62
     7
370
    50
100
AcDbLine
 10
89.6776923077
 20
921.4223076923
 30
0.0
 11
92.6776923077
 21
921.4223076923
 31
0.0
  0
ARC
  5
FB
330
1F
100
AcDbEntity
  8
0
  6
Continuous
 62
     7
370
    50
100
AcDbCircle
 10
95.8634373255
 20
921.4073428074
 30
0.0
 40
3.185780166051534
100
AcDbArc
 50
179.7308577953
 51
236.3472224176
  0
ARC
  5
FC
330
1F
100
AcDbEntity
  8
0
  6
Continuous
 62
     7
370
    50
100
AcDbCircle
 10
95.9090565551
 20
921.4236719398
 30
0.0
 40
6.231364396781529
100
AcDbArc
 50
180.0125439015
 51
269.9874560985
  0
ARC
  5
FD
330
1F
100
AcDbEntity
  8
0
  6
Continuous
 62
     7
370
    50
100
AcDbCircle
 10
1510.4476923077
 20
921.4223076923
 30
0.0
 40
6.229999999999677
100
AcDbArc
 50
270.0
 51
0.0
  0
ARC
  5
FE
330
1F
100
AcDbEntity
  8
0
  6
Continuous
 62
     7
370
    50
100
AcDbCircle
 10
1510.6064606457
 20
921.346661442
 30
0.0
 40
3.072163126623485
100
AcDbArc
 50
302.5064669169
 51
1.4109436225
  0
LINE
  5
FF
330
1F
100
AcDbEntity
  8
0
  6
Continuous
 62
     7
370
    50
100
AcDbLine
 10
1516.6776923077
 20
921.4223076923
 30
0.0
 11
1513.6776923077
 21
921.4223076923
 31
0.0
  0
LINE
  5
100
330
1F
100
AcDbEntity
  8
0
  6
Continuous
 62
     7
370
    50
100
AcDbLine
 10
89.6776923077
 20
932.1923076923
 30
0.0
 11
92.6776923077
 21
932.1923076923
 31
0.0
  0
LINE
  5
101
330
1F
100
AcDbEntity
  8
0
  6
Continuous
 62
     7
370
    50
100
AcDbLine
 10
89.6776923077
 20
921.4223076923
 30
0.0
 11
89.6776923077
 21
932.1923076923
 31
0.0
  0
LINE
  5
102
330
1F
100
AcDbEntity
  8
0
  6
Continuous
 62
     7
370
    50
100
AcDbLine
 10
92.6776923077
 20
921.4223076923
 30
0.0
 11
92.6776923077
 21
932.1923076923
 31
0.0
  0
LINE
  5
103
330
1F
100
AcDbEntity
  8
0
  6
Continuous
 62
     7
370
    50
100
AcDbLine
 10
1513.6776923077
 20
921.4223076923
 30
0.0
 11
1513.6776923077
 21
932.1923076923
 31
0.0
  0
LINE
  5
104
330
1F
100
AcDbEntity
  8
0
  6
Continuous
 62
     7
370
    50
100
AcDbLine
 10
1516.6776923077
 20
932.1923076923
 30
0.0
 11
1513.6776923077
 21
932.1923076923
 31
0.0
  0
LINE
  5
105
330
1F
100
AcDbEntity
  8
0
  6
Continuous
 62
     7
370
    50
100
AcDbLine
 10
1516.6776923077
 20
921.4223076923
 30
0.0
 11
1516.6776923077
 21
932.1923076923
 31
0.0
  0
LINE
  5
106
330
1F
100
AcDbEntity
  8
0
  6
Continuous
 62
     7
370
    50
100
AcDbLine
 10
93.3847990889
 20
730.8861538462
 30
0.0
 11
1512.9705855265
 21
730.8861538462
 31
0.0
  0
LINE
  5
107
330
1F
100
AcDbEntity
  8
0
  6
Continuous
 62
     7
370
    50
100
AcDbLine
 10
93.3847990889
 20
741.6561538462
 30
0.0
 11
93.3847990889
 21
730.8861538462
 31
0.0
  0
LINE
  5
108
330
1F
100
AcDbEntity
  8
0
  6
Continuous
 62
     7
370
    50
100
AcDbLine
 10
93.3847990889
 20
741.6561538462
 30
0.0
 11
1512.9705855265
 21
741.6561538462
 31
0.0
  0
LINE
  5
109
330
1F
100
AcDbEntity
  8
0
  6
Continuous
 62
     7
370
    50
100
AcDbLine
 10
1512.9705855265
 20
741.6561538462
 30
0.0
 11
1512.9705855265
 21
730.8861538462
 31
0.0
  0
LINE
  5
10A
330
1F
100
AcDbEntity
  8
0
  6
Continuous
 62
     7
370
    50
100
AcDbLine
 10
95.9076923077
 20
747.8861538462
 30
0.0
 11
1510.4476923077
 21
747.8861538462
 31
0.0
  0
LWPOLYLINE
  5
10B
330
1F
100
AcDbEntity
  8
0
  6
Continuous
 62
     7
370
    50
100
AcDbPolyline
 90
       10
 70
   128
 43
0.0
 10
93.3847990889
 20
741.6561538462
 10
93.6606060461
 20
742.7207243557
 10
93.9444226177
 20
743.7832299484
 10
94.2202652534
 20
744.7526516332
 10
94.5041125483
 20
745.654869171
 10
94.7799572714
 20
746.4124825036
 10
95.0638049908
 20
747.045822201
 10
95.339647058
 20
747.5005542919
 10
95.6234990105
 20
747.7888815816
 10
95.9076923077
 20
747.8861538462
  0
LWPOLYLINE
  5
10C
330
1F
100
AcDbEntity
  8
0
  6
Continuous
 62
     7
370
    50
100
AcDbPolyline
 90
       10
 70
   128
 43
0.0
 10
1510.4476923077
 20
747.8861538462
 10
1510.7234992649
 20
747.7945241209
 10
1511.0073158365
 20
747.5117876509
 10
1511.2831584722
 20
747.0621321531
 10
1511.5670057671
 20
746.4335145978
 10
1511.8428504902
 20
745.6798632918
 10
1512.1266982097
 20
744.7809538437
 10
1512.4025402769
 20
743.8139034677
 10
1512.6863922293
 20
742.7527624924
 10
1512.9705855265
 20
741.6561538462
  0
ARC
  5
10D
330
1F
100
AcDbEntity
  8
0
  6
Continuous
 62
     7
370
    50
100
AcDbCircle
 10
1510.4476923077
 20
741.6561538462
 30
0.0
 40
6.230000000000359
100
AcDbArc
 50
0.0
 51
90.0
  0
LINE
  5
10E
330
1F
100
AcDbEntity
  8
0
  6
Continuous
 62
     7
370
    50
100
AcDbLine
 10
1516.6776923077
 20
741.6561538462
 30
0.0
 11
1513.6776923077
 21
741.6561538462
 31
0.0
  0
ARC
  5
10F
330
1F
100
AcDbEntity
  8
0
  6
Continuous
 62
     7
370
    50
100
AcDbCircle
 10
1510.4877884566
 20
741.6703413367
 30
0.0
 40
3.189935401239857
100
AcDbArc
 50
359.7451716398
 51
56.3181130866
  0
ARC
  5
110
330
1F
100
AcDbEntity
  8
0
  6
Continuous
 62
     7
370
    50
100
AcDbCircle
 10
95.7489239696
 20
741.7318000965
 30
0.0
 40
3.072163126623298
100
AcDbArc
 50
122.5064669169
 51
181.4109436225
  0
LINE
  5
111
330
1F
100
AcDbEntity
  8
0
  6
Continuous
 62
     7
370
    50
100
AcDbLine
 10
89.6776923077
 20
741.6561538462
 30
0.0
 11
92.6776923077
 21
741.6561538462
 31
0.0
  0
ARC
  5
112
330
1F
100
AcDbEntity
  8
0
  6
Continuous
 62
     7
370
    50
100
AcDbCircle
 10
95.9076923077
 20
741.6561538462
 30
0.0
 40
6.229999999999563
100
AcDbArc
 50
90.0
 51
180.0
  0
LINE
  5
113
330
1F
100
AcDbEntity
  8
0
  6
Continuous
 62
     7
370
    50
100
AcDbLine
 10
1516.6776923077
 20
730.8861538462
 30
0.0
 11
1513.6776923077
 21
730.8861538462
 31
0.0
  0
LINE
  5
114
330
1F
100
AcDbEntity
  8
0
  6
Continuous
 62
     7
370
    50
100
AcDbLine
 10
1516.6776923077
 20
741.6561538462
 30
0.0
 11
1516.6776923077
 21
730.8861538462
 31
0.0
  0
LINE
  5
115
330
1F
100
AcDbEntity
  8
0
  6
Continuous
 62
     7
370
    50
100
AcDbLine
 10
1513.6776923077
 20
741.6561538462
 30
0.0
 11
1513.6776923077
 21
730.8861538462
 31
0.0
  0
LINE
  5
116
330
1F
100
AcDbEntity
  8
0
  6
Continuous
 62
     7
370
    50
100
AcDbLine
 10
92.6776923077
 20
741.6561538462
 30
0.0
 11
92.6776923077
 21
730.8861538462
 31
0.0
  0
LINE
  5
117
330
1F
100
AcDbEntity
  8
0
  6
Continuous
 62
     7
370
    50
100
AcDbLine
 10
89.6776923077
 20
730.8861538462
 30
0.0
 11
92.6776923077
 21
730.8861538462
 31
0.0
  0
LINE
  5
118
330
1F
100
AcDbEntity
  8
0
  6
Continuous
 62
     7
370
    50
100
AcDbLine
 10
89.6776923077
 20
741.6561538462
 30
0.0
 11
89.6776923077
 21
730.8861538462
 31
0.0
  0
LINE
  5
119
330
1F
100
AcDbEntity
  8
0
  6
Continuous
 62
     7
370
    50
100
AcDbLine
 10
21.4392307692
 20
866.2467393727
 30
0.0
 11
21.4392307692
 21
811.660952935
 31
0.0
  0
LINE
  5
11A
330
1F
100
AcDbEntity
  8
0
  6
Continuous
 62
     7
370
    50
100
AcDbLine
 10
32.2092307692
 20
866.2467393727
 30
0.0
 11
21.4392307692
 21
866.2467393727
 31
0.0
  0
LINE
  5
11B
330
1F
100
AcDbEntity
  8
0
  6
Continuous
 62
     7
370
    50
100
AcDbLine
 10
32.2092307692
 20
866.2467393727
 30
0.0
 11
32.2092307692
 21
811.660952935
 31
0.0
  0
LINE
  5
11C
330
1F
100
AcDbEntity
  8
0
  6
Continuous
 62
     7
370
    50
100
AcDbLine
 10
32.2092307692
 20
811.660952935
 30
0.0
 11
21.4392307692
 21
811.660952935
 31
0.0
  0
LINE
  5
11D
330
1F
100
AcDbEntity
  8
0
  6
Continuous
 62
     7
370
    50
100
AcDbLine
 10
38.4392307692
 20
863.7238461538
 30
0.0
 11
38.4392307692
 21
814.1838461538
 31
0.0
  0
LWPOLYLINE
  5
11E
330
1F
100
AcDbEntity
  8
0
  6
Continuous
 62
     7
370
    50
100
AcDbPolyline
 90
       10
 70
   128
 43
0.0
 10
32.2092307692
 20
866.2467393727
 10
33.2738012788
 20
865.9709324154
 10
34.3363068715
 20
865.6871158439
 10
35.3057285563
 20
865.4112732081
 10
36.2079460941
 20
865.1274259133
 10
36.9655594266
 20
864.8515811902
 10
37.5988991241
 20
864.5677334707
 10
38.053631215
 20
864.2918914035
 10
38.3419585047
 20
864.008039451
 10
38.4392307692
 20
863.7238461538
  0
LWPOLYLINE
  5
11F
330
1F
100
AcDbEntity
  8
0
  6
Continuous
 62
     7
370
    50
100
AcDbPolyline
 90
       10
 70
   128
 43
0.0
 10
38.4392307692
 20
814.1838461538
 10
38.347601044
 20
813.9080391966
 10
38.064864574
 20
813.6242226251
 10
37.6152090762
 20
813.3483799893
 10
36.9865915208
 20
813.0645326944
 10
36.2329402149
 20
812.7886879713
 10
35.3340307668
 20
812.5048402519
 10
34.3669803908
 20
812.2289981847
 10
33.3058394154
 20
811.9451462322
 10
32.2092307692
 20
811.660952935
  0
ARC
  5
120
330
1F
100
AcDbEntity
  8
0
  6
Continuous
 62
     7
370
    50
100
AcDbCircle
 10
32.2867649261
 20
863.8839195308
 30
0.0
 40
3.070905569396575
100
AcDbArc
 50
32.4830778479
 51
91.4467563279
  0
LINE
  5
121
330
1F
100
AcDbEntity
  8
0
  6
Continuous
 62
     7
370
    50
100
AcDbLine
 10
32.2092307692
 20
869.9538461538
 30
0.0
 11
32.2092307692
 21
866.9538461538
 31
0.0
  0
ARC
  5
122
330
1F
100
AcDbEntity
  8
0
  6
Continuous
 62
     7
370
    50
100
AcDbCircle
 10
32.2092307692
 20
863.7238461538
 30
0.0
 40
6.230000000000018
100
AcDbArc
 50
0.0
 51
90.0
  0
ARC
  5
123
330
1F
100
AcDbEntity
  8
0
  6
Continuous
 62
     7
370
    50
100
AcDbCircle
 10
32.2092307692
 20
814.1838461538
 30
0.0
 40
6.230000000000103
100
AcDbArc
 50
270.0
 51
0.0
  0
LINE
  5
124
330
1F
100
AcDbEntity
  8
0
  6
Continuous
 62
     7
370
    50
100
AcDbLine
 10
32.2092307692
 20
807.9538461538
 30
0.0
 11
32.2092307692
 21
810.9538461538
 31
0.0
  0
ARC
  5
125
330
1F
100
AcDbEntity
  8
0
  6
Continuous
 62
     7
370
    50
100
AcDbCircle
 10
32.2234182597
 20
814.1437500049
 30
0.0
 40
3.189935401237235
100
AcDbArc
 50
269.7451716398
 51
326.3181130866
  0
LINE
  5
126
330
1F
100
AcDbEntity
  8
0
  6
Continuous
 62
     7
370
    50
100
AcDbLine
 10
21.4392307692
 20
869.9538461538
 30
0.0
 11
21.4392307692
 21
866.9538461538
 31
0.0
  0
LINE
  5
127
330
1F
100
AcDbEntity
  8
0
  6
Continuous
 62
     7
370
    50
100
AcDbLine
 10
32.2092307692
 20
869.9538461538
 30
0.0
 11
21.4392307692
 21
869.9538461538
 31
0.0
  0
LINE
  5
128
330
1F
100
AcDbEntity
  8
0
  6
Continuous
 62
     7
370
    50
100
AcDbLine
 10
32.2092307692
 20
866.9538461538
 30
0.0
 11
21.4392307692
 21
866.9538461538
 31
0.0
  0
LINE
  5
129
330
1F
100
AcDbEntity
  8
0
  6
Continuous
 62
     7
370
    50
100
AcDbLine
 10
32.2092307692
 20
807.9538461538
 30
0.0
 11
21.4392307692
 21
807.9538461538
 31
0.0
  0
LINE
  5
12A
330
1F
100
AcDbEntity
  8
0
  6
Continuous
 62
     7
370
    50
100
AcDbLine
 10
21.4392307692
 20
807.9538461538
 30
0.0
 11
21.4392307692
 21
810.9538461538
 31
0.0
  0
LINE
  5
12B
330
1F
100
AcDbEntity
  8
0
  6
Continuous
 62
     7
370
    50
100
AcDbLine
 10
32.2092307692
 20
810.9538461538
 30
0.0
 11
21.4392307692
 21
810.9538461538
 31
0.0
  0
LWPOLYLINE
  5
12C
330
1F
100
AcDbEntity
  8
0
  6
Continuous
 62
     7
370
    50
100
AcDbPolyline
 90
       10
 70
   128
 43
0.0
 10
1561.5607692308
 20
863.7238461538
 10
1561.652398956
 20
863.9996531111
 10
1561.935135426
 20
864.2834696826
 10
1562.3847909238
 20
864.5593123184
 10
1563.0134084792
 20
864.8431596132
 10
1563.7670597851
 20
865.1190043363
 10
1564.6659692332
 20
865.4028520558
 10
1565.6330196092
 20
865.678694123
 10
1566.6941605846
 20
865.9625460755
 10
1567.7907692308
 20
866.2467393727
  0
LINE
  5
12D
330
1F
100
AcDbEntity
  8
0
  6
Continuous
 62
     7
370
    50
100
AcDbLine
 10
1567.7907692308
 20
811.660952935
 30
0.0
 11
1567.7907692308
 21
866.2467393727
 31
0.0
  0
LWPOLYLINE
  5
12E
330
1F
100
AcDbEntity
  8
0
  6
Continuous
 62
     7
370
    50
100
AcDbPolyline
 90
       10
 70
   128
 43
0.0
 10
1567.7907692308
 20
811.660952935
 10
1566.7261987212
 20
811.9367598923
 10
1565.6636931285
 20
812.2205764638
 10
1564.6942714437
 20
812.4964190996
 10
1563.7920539059
 20
812.7802663944
 10
1563.0344405734
 20
813.0561111175
 10
1562.4011008759
 20
813.339958837
 10
1561.946368785
 20
813.6158009042
 10
1561.6580414953
 20
813.8996528567
 10
1561.5607692308
 20
814.1838461538
  0
LINE
  5
12F
330
1F
100
AcDbEntity
  8
0
  6
Continuous
 62
     7
370
    50
100
AcDbLine
 10
1561.5607692308
 20
814.1838461538
 30
0.0
 11
1561.5607692308
 21
863.7238461538
 31
0.0
  0
LINE
  5
130
330
1F
100
AcDbEntity
  8
0
  6
Continuous
 62
     7
370
    50
100
AcDbLine
 10
1578.5607692308
 20
811.660952935
 30
0.0
 11
1578.5607692308
 21
866.2467393727
 31
0.0
  0
LINE
  5
131
330
1F
100
AcDbEntity
  8
0
  6
Continuous
 62
     7
370
    50
100
AcDbLine
 10
1567.7907692308
 20
811.660952935
 30
0.0
 11
1578.5607692308
 21
811.660952935
 31
0.0
  0
LINE
  5
132
330
1F
100
AcDbEntity
  8
0
  6
Continuous
 62
     7
370
    50
100
AcDbLine
 10
1567.7907692308
 20
866.2467393727
 30
0.0
 11
1578.5607692308
 21
866.2467393727
 31
0.0
  0
ARC
  5
133
330
1F
100
AcDbEntity
  8
0
  6
Continuous
 62
     7
370
    50
100
AcDbCircle
 10
1567.7907692308
 20
814.1838461538
 30
0.0
 40
6.230000000000018
100
AcDbArc
 50
180.0
 51
270.0
  0
ARC
  5
134
330
1F
100
AcDbEntity
  8
0
  6
Continuous
 62
     7
370
    50
100
AcDbCircle
 10
1567.7132350739
 20
814.0237727769
 30
0.0
 40
3.070905569392422
100
AcDbArc
 50
212.4830778479
 51
271.446756328
  0
LINE
  5
135
330
1F
100
AcDbEntity
  8
0
  6
Continuous
 62
     7
370
    50
100
AcDbLine
 10
1567.7907692308
 20
807.9538461538
 30
0.0
 11
1567.7907692308
 21
810.9538461538
 31
0.0
  0
ARC
  5
136
330
1F
100
AcDbEntity
  8
0
  6
Continuous
 62
     7
370
    50
100
AcDbCircle
 10
1567.7907692308
 20
863.7238461538
 30
0.0
 40
6.229999999999677
100
AcDbArc
 50
90.0
 51
180.0
  0
LINE
  5
137
330
1F
100
AcDbEntity
  8
0
  6
Continuous
 62
     7
370
    50
100
AcDbLine
 10
1567.7907692308
 20
869.9538461538
 30
0.0
 11
1567.7907692308
 21
866.9538461538
 31
0.0
  0
ARC
  5
138
330
1F
100
AcDbEntity
  8
0
  6
Continuous
 62
     7
370
    50
100
AcDbCircle
 10
1567.7765817403
 20
863.7639423028
 30
0.0
 40
3.18993540123705
100
AcDbArc
 50
89.7451716398
 51
146.3181130866
  0
LINE
  5
139
330
1F
100
AcDbEntity
  8
0
  6
Continuous
 62
     7
370
    50
100
AcDbLine
 10
1578.5607692308
 20
807.9538461538
 30
0.0
 11
1578.5607692308
 21
810.9538461538
 31
0.0
  0
LINE
  5
13A
330
1F
100
AcDbEntity
  8
0
  6
Continuous
 62
     7
370
    50
100
AcDbLine
 10
1567.7907692308
 20
807.9538461538
 30
0.0
 11
1578.5607692308
 21
807.9538461538
 31
0.0
  0
LINE
  5
13B
330
1F
100
AcDbEntity
  8
0
  6
Continuous
 62
     7
370
    50
100
AcDbLine
 10
1567.7907692308
 20
810.9538461538
 30
0.0
 11
1578.5607692308
 21
810.9538461538
 31
0.0
  0
LINE
  5
13C
330
1F
100
AcDbEntity
  8
0
  6
Continuous
 62
     7
370
    50
100
AcDbLine
 10
1567.7907692308
 20
866.9538461538
 30
0.0
 11
1578.5607692308
 21
866.9538461538
 31
0.0
  0
LINE
  5
13D
330
1F
100
AcDbEntity
  8
0
  6
Continuous
 62
     7
370
    50
100
AcDbLine
 10
1567.7907692308
 20
869.9538461538
 30
0.0
 11
1578.5607692308
 21
869.9538461538
 31
0.0
  0
LINE
  5
13E
330
1F
100
AcDbEntity
  8
0
  6
Continuous
 62
     7
370
    50
100
AcDbLine
 10
1578.5607692308
 20
869.9538461538
 30
0.0
 11
1578.5607692308
 21
866.9538461538
 31
0.0
  0
ENDSEC
  0
SECTION
  2
OBJECTS
  0
DICTIONARY
  5
C
330
0
100
AcDbDictionary
281
     1
  3
ACAD_DETAILVIEWSTYLE
350
146
  3
ACAD_GROUP
350
D
  3
ACAD_LAYOUT
350
1A
  3
ACAD_MATERIAL
350
43
  3
ACAD_MLEADERSTYLE
350
6B
  3
ACAD_MLINESTYLE
350
17
  3
ACAD_PLOTSETTINGS
350
19
  3
ACAD_PLOTSTYLENAME
350
E
  3
ACAD_SCALELIST
350
47
  3
ACAD_SECTIONVIEWSTYLE
350
147
  3
ACAD_TABLESTYLE
350
69
  3
ACAD_VISUALSTYLE
350
2A
  3
ACDB_RECOMPOSE_DATA
350
143
  3
AcDbVariableDictionary
350
13F
  0
SUN
  5
6D
330
29
100
AcDbSun
 90
        1
290
     0
 63
     7
421
 16777215
 40
1.0
291
     1
 91
  2455826
 92
 54000000
292
     0
 70
     2
 71
   256
280
     1
  0
DICTIONARY
  5
146
102
{ACAD_REACTORS
330
C
102
}
330
C
100
AcDbDictionary
281
     1
  0
DICTIONARY
  5
D
102
{ACAD_REACTORS
330
C
102
}
330
C
100
AcDbDictionary
281
     1
  0
DICTIONARY
  5
1A
102
{ACAD_REACTORS
330
C
102
}
330
C
100
AcDbDictionary
281
     1
  3
Layout1
350
1E
  3
Layout2
350
26
  3
Model
350
22
  0
DICTIONARY
  5
43
102
{ACAD_REACTORS
330
C
102
}
330
C
100
AcDbDictionary
281
     1
  3
ByBlock
350
45
  3
ByLayer
350
44
  3
Global
350
46
  0
DICTIONARY
  5
6B
102
{ACAD_REACTORS
330
C
102
}
330
C
100
AcDbDictionary
281
     1
  3
Standard
350
6C
  0
DICTIONARY
  5
17
102
{ACAD_REACTORS
330
C
102
}
330
C
100
AcDbDictionary
281
     1
  3
Standard
350
18
  0
DICTIONARY
  5
19
102
{ACAD_REACTORS
330
C
102
}
330
C
100
AcDbDictionary
281
     1
  0
ACDBDICTIONARYWDFLT
  5
E
102
{ACAD_REACTORS
330
C
102
}
330
C
100
AcDbDictionary
281
     1
  3
Normal
350
F
100
AcDbDictionaryWithDefault
340
F
  0
DICTIONARY
  5
47
102
{ACAD_REACTORS
330
C
102
}
330
C
100
AcDbDictionary
281
     1
  3
A0
350
48
  3
A1
350
49
  3
A2
350
4A
  3
A3
350
4B
  3
A4
350
4C
  3
A5
350
4D
  3
A6
350
4E
  3
A7
350
4F
  3
A8
350
50
  3
A9
350
51
  3
B0
350
52
  3
B1
350
53
  3
B2
350
54
  3
B3
350
55
  3
B4
350
56
  3
B5
350
57
  3
B6
350
58
  3
B7
350
59
  3
B8
350
5A
  3
B9
350
5B
  3
C0
350
5C
  3
C1
350
5D
  3
C2
350
5E
  3
C3
350
5F
  3
C4
350
60
  3
C5
350
61
  3
C6
350
62
  3
C7
350
63
  3
C8
350
64
  3
C9
350
65
  3
D0
350
66
  3
D1
350
67
  3
D2
350
68
  0
DICTIONARY
  5
147
102
{ACAD_REACTORS
330
C
102
}
330
C
100
AcDbDictionary
281
     1
  0
DICTIONARY
  5
69
102
{ACAD_REACTORS
330
C
102
}
330
C
100
AcDbDictionary
281
     1
  3
Standard
350
6A
  0
DICTIONARY
  5
2A
102
{ACAD_REACTORS
330
C
102
}
330
C
100
AcDbDictionary
281
     1
  3
2dWireframe
350
2F
  3
Basic
350
32
  3
Brighten
350
36
  3
ColorChange
350
3A
  3
Conceptual
350
34
  3
Dim
350
35
  3
EdgeColorOff
350
3D
  3
Facepattern
350
39
  3
Flat
350
2B
  3
FlatWithEdges
350
2C
  3
Gouraud
350
2D
  3
GouraudWithEdges
350
2E
  3
Hidden
350
31
  3
JitterOff
350
3B
  3
Linepattern
350
38
  3
OverhangOff
350
3C
  3
Realistic
350
33
  3
Shaded
350
42
  3
Shaded with edges
350
41
  3
Shades of Gray
350
3E
  3
Sketchy
350
3F
  3
Thicken
350
37
  3
Wireframe
350
30
  3
X-Ray
350
40
  0
XRECORD
  5
143
102
{ACAD_REACTORS
330
C
102
}
330
C
100
AcDbXrecord
280
     1
 90
        1
330
6A
  0
DICTIONARY
  5
13F
102
{ACAD_REACTORS
330
C
102
}
330
C
100
AcDbDictionary
281
     1
  3
CANNOSCALE
350
140
  3
CENTEREXE
350
148
  3
CENTERLTYPEFILE
350
149
  3
CMLEADERSTYLE
350
145
  3
CTABLESTYLE
350
144
  0
LAYOUT
  5
1E
102
{ACAD_REACTORS
330
1A
102
}
330
1A
100
AcDbPlotSettings
  1

  2
none_device
  4

  6

 40
0.0
 41
0.0
 42
0.0
 43
0.0
 44
0.0
 45
0.0
 46
0.0
 47
0.0
 48
0.0
 49
0.0
140
0.0
141
0.0
142
1.0
143
1.0
 70
   688
 72
     1
 73
     0
 74
     5
  7

 75
    16
 76
     0
 77
     2
 78
   300
147
1.0
148
0.0
149
0.0
100
AcDbLayout
  1
Layout1
 70
     1
 71
     1
 10
0.0
 20
0.0
 11
420.0
 21
297.0
 12
0.0
 22
0.0
 32
0.0
 14
1.0000000000E+20
 24
1.0000000000E+20
 34
1.0000000000E+20
 15
-1.0000000000E+20
 25
-1.0000000000E+20
 35
-1.0000000000E+20
146
0.0
 13
0.0
 23
0.0
 33
0.0
 16
1.0
 26
0.0
 36
0.0
 17
0.0
 27
1.0
 37
0.0
 76
     0
330
1B
  0
LAYOUT
  5
26
102
{ACAD_REACTORS
330
1A
102
}
330
1A
100
AcDbPlotSettings
  1

  2
none_device
  4

  6

 40
0.0
 41
0.0
 42
0.0
 43
0.0
 44
0.0
 45
0.0
 46
0.0
 47
0.0
 48
0.0
 49
0.0
140
0.0
141
0.0
142
1.0
143
1.0
 70
   688
 72
     1
 73
     0
 74
     5
  7

 75
    16
 76
     0
 77
     2
 78
   300
147
1.0
148
0.0
149
0.0
100
AcDbLayout
  1
Layout2
 70
     1
 71
     2
 10
0.0
 20
0.0
 11
0.0
 21
0.0
 12
0.0
 22
0.0
 32
0.0
 14
0.0
 24
0.0
 34
0.0
 15
0.0
 25
0.0
 35
0.0
146
0.0
 13
0.0
 23
0.0
 33
0.0
 16
1.0
 26
0.0
 36
0.0
 17
0.0
 27
1.0
 37
0.0
 76
     0
330
23
  0
LAYOUT
  5
22
102
{ACAD_REACTORS
330
1A
102
}
330
1A
100
AcDbPlotSettings
  1

  2
none_device
  4
Letter_(8.50_x_11.00_Inches)
  6

 40
6.35
 41
6.35
 42
6.35000508
 43
6.35000508
 44
215.9
 45
279.4
 46
0.0
 47
0.0
 48
0.0
 49
0.0
140
0.0
141
0.0
142
1.0
143
1.0
 70
  1712
 72
     1
 73
     0
 74
     0
  7

 75
     0
 76
     0
 77
     2
 78
   300
147
1.0
148
0.0
149
0.0
100
AcDbLayout
  1
Model
 70
     1
 71
     0
 10
0.0
 20
0.0
 11
1600.0
 21
1000.0
 12
0.0
 22
0.0
 32
0.0
 14
0.0
 24
0.0
 34
0.0
 15
1600.0
 25
1000.0
 35
0.0
146
0.0
 13
0.0
 23
0.0
 33
0.0
 16
1.0
 26
0.0
 36
0.0
 17
0.0
 27
1.0
 37
0.0
 76
     0
330
1F
331
29
  0
MATERIAL
  5
45
102
{ACAD_REACTORS
330
43
102
}
330
43
100
AcDbMaterial
  1
ByBlock
 72
     1
 94
      127
  0
MATERIAL
  5
44
102
{ACAD_REACTORS
330
43
102
}
330
43
100
AcDbMaterial
  1
ByLayer
 72
     1
 94
      127
  0
MATERIAL
  5
46
102
{ACAD_REACTORS
330
43
102
}
330
43
100
AcDbMaterial
  1
Global
 72
     1
 94
      127
  0
MLEADERSTYLE
  5
6C
102
{ACAD_REACTORS
330
6B
102
}
330
6B
100
AcDbMLeaderStyle
179
     2
170
     2
171
     1
172
     0
 90
        2
 40
0.0
 41
0.0
173
     1
 91
-1056964608
340
14
 92
       -2
290
     1
 42
2.0
291
     1
 43
8.0
  3
Standard
341
0
 44
4.0
300

342
11
174
     1
178
     6
175
     1
176
     0
 93
-1056964608
 45
4.0
292
     0
297
     0
 46
4.0
343
0
 94
-1056964608
 47
1.0
 49
1.0
140
1.0
293
     1
141
0.0
294
     1
177
     0
142
1.0
295
     0
296
     0
143
3.75
271
     0
272
     9
273
     9
298
     0
  0
MLINESTYLE
  5
18
102
{ACAD_REACTORS
330
17
102
}
330
17
100
AcDbMlineStyle
  2
Standard
 70
     0
  3

 62
   256
 51
90.0
 52
90.0
 71
     2
 49
0.5
 62
   256
  6
BYLAYER
 49
-0.5
 62
   256
  6
BYLAYER
  0
ACDBPLACEHOLDER
  5
F
102
{ACAD_REACTORS
330
E
102
}
330
E
  0
SCALE
  5
48
102
{ACAD_REACTORS
330
47
102
}
330
47
100
AcDbScale
 70
     0
300
1:1
140
1.0
141
1.0
290
     1
  0
SCALE
  5
49
102
{ACAD_REACTORS
330
47
102
}
330
47
100
AcDbScale
 70
     0
300
1:2
140
1.0
141
2.0
290
     0
  0
SCALE
  5
4A
102
{ACAD_REACTORS
330
47
102
}
330
47
100
AcDbScale
 70
     0
300
1:4
140
1.0
141
4.0
290
     0
  0
SCALE
  5
4B
102
{ACAD_REACTORS
330
47
102
}
330
47
100
AcDbScale
 70
     0
300
1:5
140
1.0
141
5.0
290
     0
  0
SCALE
  5
4C
102
{ACAD_REACTORS
330
47
102
}
330
47
100
AcDbScale
 70
     0
300
1:8
140
1.0
141
8.0
290
     0
  0
SCALE
  5
4D
102
{ACAD_REACTORS
330
47
102
}
330
47
100
AcDbScale
 70
     0
300
1:10
140
1.0
141
10.0
290
     0
  0
SCALE
  5
4E
102
{ACAD_REACTORS
330
47
102
}
330
47
100
AcDbScale
 70
     0
300
1:16
140
1.0
141
16.0
290
     0
  0
SCALE
  5
4F
102
{ACAD_REACTORS
330
47
102
}
330
47
100
AcDbScale
 70
     0
300
1:20
140
1.0
141
20.0
290
     0
  0
SCALE
  5
50
102
{ACAD_REACTORS
330
47
102
}
330
47
100
AcDbScale
 70
     0
300
1:30
140
1.0
141
30.0
290
     0
  0
SCALE
  5
51
102
{ACAD_REACTORS
330
47
102
}
330
47
100
AcDbScale
 70
     0
300
1:40
140
1.0
141
40.0
290
     0
  0
SCALE
  5
52
102
{ACAD_REACTORS
330
47
102
}
330
47
100
AcDbScale
 70
     0
300
1:50
140
1.0
141
50.0
290
     0
  0
SCALE
  5
53
102
{ACAD_REACTORS
330
47
102
}
330
47
100
AcDbScale
 70
     0
300
1:100
140
1.0
141
100.0
290
     0
  0
SCALE
  5
54
102
{ACAD_REACTORS
330
47
102
}
330
47
100
AcDbScale
 70
     0
300
2:1
140
2.0
141
1.0
290
     0
  0
SCALE
  5
55
102
{ACAD_REACTORS
330
47
102
}
330
47
100
AcDbScale
 70
     0
300
4:1
140
4.0
141
1.0
290
     0
  0
SCALE
  5
56
102
{ACAD_REACTORS
330
47
102
}
330
47
100
AcDbScale
 70
     0
300
8:1
140
8.0
141
1.0
290
     0
  0
SCALE
  5
57
102
{ACAD_REACTORS
330
47
102
}
330
47
100
AcDbScale
 70
     0
300
10:1
140
10.0
141
1.0
290
     0
  0
SCALE
  5
58
102
{ACAD_REACTORS
330
47
102
}
330
47
100
AcDbScale
 70
     0
300
100:1
140
100.0
141
1.0
290
     0
  0
SCALE
  5
59
102
{ACAD_REACTORS
330
47
102
}
330
47
100
AcDbScale
 70
     0
300
1/128" = 1'-0"
140
0.0078125
141
12.0
290
     0
  0
SCALE
  5
5A
102
{ACAD_REACTORS
330
47
102
}
330
47
100
AcDbScale
 70
     0
300
1/64" = 1'-0"
140
0.015625
141
12.0
290
     0
  0
SCALE
  5
5B
102
{ACAD_REACTORS
330
47
102
}
330
47
100
AcDbScale
 70
     0
300
1/32" = 1'-0"
140
0.03125
141
12.0
290
     0
  0
SCALE
  5
5C
102
{ACAD_REACTORS
330
47
102
}
330
47
100
AcDbScale
 70
     0
300
1/16" = 1'-0"
140
0.0625
141
12.0
290
     0
  0
SCALE
  5
5D
102
{ACAD_REACTORS
330
47
102
}
330
47
100
AcDbScale
 70
     0
300
3/32" = 1'-0"
140
0.09375
141
12.0
290
     0
  0
SCALE
  5
5E
102
{ACAD_REACTORS
330
47
102
}
330
47
100
AcDbScale
 70
     0
300
1/8" = 1'-0"
140
0.125
141
12.0
290
     0
  0
SCALE
  5
5F
102
{ACAD_REACTORS
330
47
102
}
330
47
100
AcDbScale
 70
     0
300
3/16" = 1'-0"
140
0.1875
141
12.0
290
     0
  0
SCALE
  5
60
102
{ACAD_REACTORS
330
47
102
}
330
47
100
AcDbScale
 70
     0
300
1/4" = 1'-0"
140
0.25
141
12.0
290
     0
  0
SCALE
  5
61
102
{ACAD_REACTORS
330
47
102
}
330
47
100
AcDbScale
 70
     0
300
3/8" = 1'-0"
140
0.375
141
12.0
290
     0
  0
SCALE
  5
62
102
{ACAD_REACTORS
330
47
102
}
330
47
100
AcDbScale
 70
     0
300
1/2" = 1'-0"
140
0.5
141
12.0
290
     0
  0
SCALE
  5
63
102
{ACAD_REACTORS
330
47
102
}
330
47
100
AcDbScale
 70
     0
300
3/4" = 1'-0"
140
0.75
141
12.0
290
     0
  0
SCALE
  5
64
102
{ACAD_REACTORS
330
47
102
}
330
47
100
AcDbScale
 70
     0
300
1" = 1'-0"
140
1.0
141
12.0
290
     0
  0
SCALE
  5
65
102
{ACAD_REACTORS
330
47
102
}
330
47
100
AcDbScale
 70
     0
300
1-1/2" = 1'-0"
140
1.5
141
12.0
290
     0
  0
SCALE
  5
66
102
{ACAD_REACTORS
330
47
102
}
330
47
100
AcDbScale
 70
     0
300
3" = 1'-0"
140
3.0
141
12.0
290
     0
  0
SCALE
  5
67
102
{ACAD_REACTORS
330
47
102
}
330
47
100
AcDbScale
 70
     0
300
6" = 1'-0"
140
6.0
141
12.0
290
     0
  0
SCALE
  5
68
102
{ACAD_REACTORS
330
47
102
}
330
47
100
AcDbScale
 70
     0
300
1'-0" = 1'-0"
140
12.0
141
12.0
290
     0
  0
TABLESTYLE
  5
6A
102
{ACAD_REACTORS
330
69
102
}
102
{ACAD_XDICTIONARY
360
141
102
}
330
69
100
AcDbTableStyle
  3
Standard
 70
     0
 71
     0
 40
0.06
 41
0.06
280
     0
281
     0
  7
Standard
140
4.5
170
     2
 62
     0
 63
   257
283
     0
 90
        4
 91
        0
  1

274
    -2
284
     1
 64
     0
275
    -2
285
     1
 65
     0
276
    -2
286
     1
 66
     0
277
    -2
287
     1
 67
     0
278
    -2
288
     1
 68
     0
279
    -2
289
     1
 69
     0
  7
Standard
140
6.0
170
     5
 62
     0
 63
   257
283
     0
 90
        4
 91
        0
  1

274
    -2
284
     1
 64
     0
275
    -2
285
     1
 65
     0
276
    -2
286
     1
 66
     0
277
    -2
287
     1
 67
     0
278
    -2
288
     1
 68
     0
279
    -2
289
     1
 69
     0
  7
Standard
140
4.5
170
     5
 62
     0
 63
   257
283
     0
 90
        4
 91
        0
  1

274
    -2
284
     1
 64
     0
275
    -2
285
     1
 65
     0
276
    -2
286
     1
 66
     0
277
    -2
287
     1
 67
     0
278
    -2
288
     1
 68
     0
279
    -2
289
     1
 69
     0
  0
VISUALSTYLE
  5
2F
102
{ACAD_REACTORS
330
2A
102
}
330
2A
100
AcDbVisualStyle
  2
2dWireframe
 70
     4
177
     3
291
     0
 70
    58
 90
        0
176
     1
 90
        2
176
     1
 90
        0
176
     1
 90
        0
176
     1
 40
0.6
176
     1
 40
30.0
176
     1
 62
     7
420
 16777215
176
     1
 90
        1
176
     1
 90
        4
176
     1
 62
     7
176
     1
 62
   257
176
     1
 90
        1
176
     1
 90
        1
176
     1
 40
1.0
176
     1
 90
        0
176
     1
 62
   257
176
     1
 40
1.0
176
     1
 90
        1
176
     1
 90
        6
176
     1
 90
        2
176
     1
 62
     7
176
     1
 90
        5
176
     1
 90
        0
176
     1
 90
        0
176
     1
290
     0
176
     1
 90
        1
176
     1
 40
0.0
176
     1
 90
        0
176
     1
290
     1
176
     1
290
     1
176
     1
290
     0
176
     1
290
     0
176
     1
290
     0
176
     1
290
     0
176
     1
290
     0
176
     1
290
     0
176
     1
290
     0
176
     1
 90
       50
176
     1
 40
0.0
176
     1
 40
1.0
176
     1
 90
        0
176
     1
 62
    18
420
        0
176
     1
 90
       50
176
     1
 90
        3
176
     1
 62
     5
420
      255
176
     1
290
     0
176
     1
 90
       50
176
     1
 90
       50
176
     1
 90
       50
176
     1
290
     0
176
     1
 90
       50
176
     1
 62
   256
176
     0
 40
1.0
176
     0
 90
        2
176
     1
  1
strokes_ogs.tif
176
     1
290
     0
176
     1
 40
1.0
176
     1
 40
1.0
176
     1
  0
VISUALSTYLE
  5
32
102
{ACAD_REACTORS
330
2A
102
}
330
2A
100
AcDbVisualStyle
  2
Basic
 70
     7
177
     3
291
     1
 70
    58
 90
        1
176
     1
 90
        0
176
     1
 90
        1
176
     1
 90
        0
176
     1
 40
0.6
176
     1
 40
30.0
176
     1
 62
     7
420
 16777215
176
     1
 90
        0
176
     1
 90
        4
176
     1
 62
     7
176
     1
 62
   257
176
     1
 90
        1
176
     1
 90
        1
176
     1
 40
1.0
176
     1
 90
        8
176
     1
 62
     7
176
     1
 40
1.0
176
     1
 90
        1
176
     1
 90
        6
176
     1
 90
        2
176
     1
 62
     7
176
     1
 90
        5
176
     1
 90
        0
176
     1
 90
        0
176
     1
290
     0
176
     1
 90
        1
176
     1
 40
0.0
176
     1
 90
        0
176
     1
290
     0
176
     1
290
     1
176
     1
290
     1
176
     1
290
     0
176
     1
290
     0
176
     1
290
     0
176
     1
290
     0
176
     1
290
     0
176
     1
290
     0
176
     1
 90
       50
176
     1
 40
0.0
176
     1
 40
1.0
176
     1
 90
        0
176
     1
 62
    18
420
        0
176
     1
 90
       50
176
     1
 90
        3
176
     1
 62
     5
420
      255
176
     1
290
     0
176
     1
 90
       50
176
     1
 90
       50
176
     1
 90
       50
176
     1
290
     0
176
     1
 90
       50
176
     1
 62
   256
176
     0
 40
1.0
176
     0
 90
        2
176
     1
  1
strokes_ogs.tif
176
     1
290
     0
176
     1
 40
1.0
176
     1
 40
1.0
176
     1
  0
VISUALSTYLE
  5
36
102
{ACAD_REACTORS
330
2A
102
}
330
2A
100
AcDbVisualStyle
  2
Brighten
 70
    12
177
     3
291
     1
 70
    58
 90
        2
176
     1
 90
        2
176
     1
 90
        0
176
     1
 90
        0
176
     1
 40
0.6
176
     1
 40
30.0
176
     1
 62
     7
420
 16777215
176
     1
 90
        1
176
     1
 90
        4
176
     1
 62
     7
176
     1
 62
   257
176
     1
 90
        1
176
     1
 90
        1
176
     1
 40
1.0
176
     1
 90
        8
176
     1
 62
     7
176
     1
 40
1.0
176
     1
 90
        1
176
     1
 90
        6
176
     1
 90
        2
176
     1
 62
     7
176
     1
 90
        5
176
     1
 90
        0
176
     1
 90
        0
176
     1
290
     0
176
     1
 90
        1
176
     1
 40
50.0
176
     1
 90
        0
176
     1
290
     0
176
     1
290
     1
176
     1
290
     1
176
     1
290
     0
176
     1
290
     0
176
     1
290
     0
176
     1
290
     0
176
     1
290
     0
176
     1
290
     0
176
     1
 90
       50
176
     1
 40
0.0
176
     1
 40
1.0
176
     1
 90
        0
176
     1
 62
    18
420
        0
176
     1
 90
       50
176
     1
 90
        3
176
     1
 62
     5
420
      255
176
     1
290
     0
176
     1
 90
       50
176
     1
 90
       50
176
     1
 90
       50
176
     1
290
     0
176
     1
 90
       50
176
     1
 62
   256
176
     0
 40
1.0
176
     0
 90
        2
176
     1
  1
strokes_ogs.tif
176
     1
290
     0
176
     1
 40
1.0
176
     1
 40
1.0
176
     1
  0
VISUALSTYLE
  5
3A
102
{ACAD_REACTORS
330
2A
102
}
330
2A
100
AcDbVisualStyle
  2
ColorChange
 70
    16
177
     3
291
     1
 70
    58
 90
        2
176
     1
 90
        2
176
     1
 90
        3
176
     1
 90
        0
176
     1
 40
0.6
176
     1
 40
30.0
176
     1
 62
     8
420
  8421504
176
     1
 90
        1
176
     1
 90
        4
176
     1
 62
     7
176
     1
 62
   257
176
     1
 90
        1
176
     1
 90
        1
176
     1
 40
1.0
176
     1
 90
        8
176
     1
 62
     8
420
  8421504
176
     1
 40
1.0
176
     1
 90
        1
176
     1
 90
        6
176
     1
 90
        2
176
     1
 62
     7
176
     1
 90
        5
176
     1
 90
        0
176
     1
 90
        0
176
     1
290
     0
176
     1
 90
        1
176
     1
 40
0.0
176
     1
 90
        0
176
     1
290
     0
176
     1
290
     1
176
     1
290
     1
176
     1
290
     0
176
     1
290
     0
176
     1
290
     0
176
     1
290
     0
176
     1
290
     0
176
     1
290
     0
176
     1
 90
       50
176
     1
 40
0.0
176
     1
 40
1.0
176
     1
 90
        0
176
     1
 62
    18
420
        0
176
     1
 90
       50
176
     1
 90
        3
176
     1
 62
     5
420
      255
176
     1
290
     0
176
     1
 90
       50
176
     1
 90
       50
176
     1
 90
       50
176
     1
290
     0
176
     1
 90
       50
176
     1
 62
   256
176
     0
 40
1.0
176
     0
 90
        2
176
     1
  1
strokes_ogs.tif
176
     1
290
     0
176
     1
 40
1.0
176
     1
 40
1.0
176
     1
  0
VISUALSTYLE
  5
34
102
{ACAD_REACTORS
330
2A
102
}
330
2A
100
AcDbVisualStyle
  2
Conceptual
 70
     9
177
     3
291
     0
 70
    58
 90
        3
176
     1
 90
        2
176
     1
 90
        0
176
     1
 90
        0
176
     1
 40
0.6
176
     1
 40
30.0
176
     1
 62
     7
420
 16777215
176
     1
 90
        2
176
     1
 90
        2
176
     1
 62
     7
176
     1
 62
   257
176
     1
 90
        1
176
     1
 90
        1
176
     1
 40
179.0
176
     1
 90
        8
176
     1
 62
     7
176
     1
 40
1.0
176
     1
 90
        1
176
     1
 90
        6
176
     1
 90
        2
176
     1
 62
     7
176
     1
 90
        3
176
     1
 90
        0
176
     1
 90
        0
176
     1
290
     0
176
     1
 90
        1
176
     1
 40
0.0
176
     1
 90
        0
176
     1
290
     0
176
     1
290
     1
176
     1
290
     1
176
     1
290
     0
176
     1
290
     0
176
     1
290
     0
176
     1
290
     0
176
     1
290
     0
176
     1
290
     0
176
     1
 90
       50
176
     1
 40
0.0
176
     1
 40
1.0
176
     1
 90
        0
176
     1
 62
    18
420
        0
176
     1
 90
       50
176
     1
 90
        3
176
     1
 62
     5
420
      255
176
     1
290
     0
176
     1
 90
       50
176
     1
 90
       50
176
     1
 90
       50
176
     1
290
     0
176
     1
 90
       50
176
     1
 62
   256
176
     0
 40
1.0
176
     0
 90
        2
176
     1
  1
strokes_ogs.tif
176
     1
290
     0
176
     1
 40
1.0
176
     1
 40
1.0
176
     1
  0
VISUALSTYLE
  5
35
102
{ACAD_REACTORS
330
2A
102
}
330
2A
100
AcDbVisualStyle
  2
Dim
 70
    11
177
     3
291
     1
 70
    58
 90
        2
176
     1
 90
        2
176
     1
 90
        0
176
     1
 90
        0
176
     1
 40
0.6
176
     1
 40
30.0
176
     1
 62
     7
420
 16777215
176
     1
 90
        1
176
     1
 90
        4
176
     1
 62
     7
176
     1
 62
   257
176
     1
 90
        1
176
     1
 90
        1
176
     1
 40
1.0
176
     1
 90
        8
176
     1
 62
     7
176
     1
 40
1.0
176
     1
 90
        1
176
     1
 90
        6
176
     1
 90
        2
176
     1
 62
     7
176
     1
 90
        5
176
     1
 90
        0
176
     1
 90
        0
176
     1
290
     0
176
     1
 90
        1
176
     1
 40
-50.0
176
     1
 90
        0
176
     1
290
     0
176
     1
290
     1
176
     1
290
     1
176
     1
290
     0
176
     1
290
     0
176
     1
290
     0
176
     1
290
     0
176
     1
290
     0
176
     1
290
     0
176
     1
 90
       50
176
     1
 40
0.0
176
     1
 40
1.0
176
     1
 90
        0
176
     1
 62
    18
420
        0
176
     1
 90
       50
176
     1
 90
        3
176
     1
 62
     5
420
      255
176
     1
290
     0
176
     1
 90
       50
176
     1
 90
       50
176
     1
 90
       50
176
     1
290
     0
176
     1
 90
       50
176
     1
 62
   256
176
     0
 40
1.0
176
     0
 90
        2
176
     1
  1
strokes_ogs.tif
176
     1
290
     0
176
     1
 40
1.0
176
     1
 40
1.0
176
     1
  0
VISUALSTYLE
  5
3D
102
{ACAD_REACTORS
330
2A
102
}
330
2A
100
AcDbVisualStyle
  2
EdgeColorOff
 70
    22
177
     3
291
     1
 70
    58
 90
        2
176
     0
 90
        2
176
     0
 90
        0
176
     0
 90
        0
176
     0
 40
0.6
176
     0
 40
30.0
176
     0
 62
     7
420
 16777215
176
     0
 90
        1
176
     0
 90
        4
176
     0
 62
     7
176
     0
 62
   257
176
     0
 90
        1
176
     0
 90
        1
176
     0
 40
1.0
176
     0
 90
        8
176
     2
 62
     7
176
     0
 40
1.0
176
     0
 90
        1
176
     0
 90
        6
176
     0
 90
        2
176
     0
 62
     7
176
     0
 90
        5
176
     0
 90
        0
176
     0
 90
        0
176
     0
290
     0
176
     0
 90
        1
176
     0
 40
0.0
176
     0
 90
        0
176
     0
290
     0
176
     0
290
     1
176
     0
290
     1
176
     0
290
     0
176
     0
290
     0
176
     0
290
     0
176
     0
290
     0
176
     0
290
     0
176
     0
290
     0
176
     0
 90
       50
176
     0
 40
0.0
176
     0
 40
1.0
176
     0
 90
        0
176
     0
 62
    18
420
        0
176
     0
 90
       50
176
     0
 90
        3
176
     0
 62
     5
420
      255
176
     0
290
     0
176
     0
 90
       50
176
     0
 90
       50
176
     0
 90
       50
176
     0
290
     0
176
     0
 90
       50
176
     0
 62
   256
176
     0
 40
1.0
176
     0
 90
        2
176
     0
  1
strokes_ogs.tif
176
     0
290
     0
176
     0
 40
1.0
176
     0
 40
1.0
176
     0
  0
VISUALSTYLE
  5
39
102
{ACAD_REACTORS
330
2A
102
}
330
2A
100
AcDbVisualStyle
  2
Facepattern
 70
    15
177
     3
291
     1
 70
    58
 90
        2
176
     1
 90
        2
176
     1
 90
        0
176
     1
 90
        0
176
     1
 40
0.6
176
     1
 40
30.0
176
     1
 62
     7
420
 16777215
176
     1
 90
        1
176
     1
 90
        4
176
     1
 62
     7
176
     1
 62
   257
176
     1
 90
        1
176
     1
 90
        1
176
     1
 40
1.0
176
     1
 90
        8
176
     1
 62
     7
176
     1
 40
1.0
176
     1
 90
        1
176
     1
 90
        6
176
     1
 90
        2
176
     1
 62
     7
176
     1
 90
        5
176
     1
 90
        0
176
     1
 90
        0
176
     1
290
     0
176
     1
 90
        1
176
     1
 40
0.0
176
     1
 90
        0
176
     1
290
     0
176
     1
290
     1
176
     1
290
     1
176
     1
290
     0
176
     1
290
     0
176
     1
290
     0
176
     1
290
     0
176
     1
290
     0
176
     1
290
     0
176
     1
 90
       50
176
     1
 40
0.0
176
     1
 40
1.0
176
     1
 90
        0
176
     1
 62
    18
420
        0
176
     1
 90
       50
176
     1
 90
        3
176
     1
 62
     5
420
      255
176
     1
290
     0
176
     1
 90
       50
176
     1
 90
       50
176
     1
 90
       50
176
     1
290
     0
176
     1
 90
       50
176
     1
 62
   256
176
     0
 40
1.0
176
     0
 90
        2
176
     1
  1
strokes_ogs.tif
176
     1
290
     0
176
     1
 40
1.0
176
     1
 40
1.0
176
     1
  0
VISUALSTYLE
  5
2B
102
{ACAD_REACTORS
330
2A
102
}
330
2A
100
AcDbVisualStyle
  2
Flat
 70
     0
177
     3
291
     1
 70
    58
 90
        2
176
     1
 90
        1
176
     1
 90
        1
176
     1
 90
        2
176
     1
 40
0.6
176
     1
 40
30.0
176
     1
 62
     7
420
 16777215
176
     1
 90
        0
176
     1
 90
        0
176
     1
 62
     7
176
     1
 62
   257
176
     1
 90
        1
176
     1
 90
        1
176
     1
 40
1.0
176
     1
 90
        8
176
     1
 62
     7
176
     1
 40
1.0
176
     1
 90
        1
176
     1
 90
        6
176
     1
 90
        2
176
     1
 62
     7
176
     1
 90
        5
176
     1
 90
        0
176
     1
 90
        0
176
     1
290
     0
176
     1
 90
       13
176
     1
 40
0.0
176
     1
 90
        0
176
     1
290
     0
176
     1
290
     1
176
     1
290
     1
176
     1
290
     0
176
     1
290
     0
176
     1
290
     0
176
     1
290
     0
176
     1
290
     0
176
     1
290
     0
176
     1
 90
       50
176
     1
 40
0.0
176
     1
 40
1.0
176
     1
 90
        0
176
     1
 62
    18
420
        0
176
     1
 90
       50
176
     1
 90
        3
176
     1
 62
     5
420
      255
176
     1
290
     0
176
     1
 90
       50
176
     1
 90
       50
176
     1
 90
       50
176
     1
290
     0
176
     1
 90
       50
176
     1
 62
   256
176
     0
 40
1.0
176
     0
 90
        2
176
     1
  1
strokes_ogs.tif
176
     1
290
     0
176
     1
 40
1.0
176
     1
 40
1.0
176
     1
  0
VISUALSTYLE
  5
2C
102
{ACAD_REACTORS
330
2A
102
}
330
2A
100
AcDbVisualStyle
  2
FlatWithEdges
 70
     1
177
     3
291
     1
 70
    58
 90
        2
176
     1
 90
        1
176
     1
 90
        1
176
     1
 90
        2
176
     1
 40
0.6
176
     1
 40
30.0
176
     1
 62
     7
420
 16777215
176
     1
 90
        1
176
     1
 90
        0
176
     1
 62
     7
176
     1
 62
   257
176
     1
 90
        1
176
     1
 90
        1
176
     1
 40
1.0
176
     1
 90
        0
176
     1
 62
   257
176
     1
 40
1.0
176
     1
 90
        1
176
     1
 90
        6
176
     1
 90
        2
176
     1
 62
     7
176
     1
 90
        5
176
     1
 90
        0
176
     1
 90
        0
176
     1
290
     0
176
     1
 90
       13
176
     1
 40
0.0
176
     1
 90
        0
176
     1
290
     0
176
     1
290
     1
176
     1
290
     1
176
     1
290
     0
176
     1
290
     0
176
     1
290
     0
176
     1
290
     0
176
     1
290
     0
176
     1
290
     0
176
     1
 90
       50
176
     1
 40
0.0
176
     1
 40
1.0
176
     1
 90
        0
176
     1
 62
    18
420
        0
176
     1
 90
       50
176
     1
 90
        3
176
     1
 62
     5
420
      255
176
     1
290
     0
176
     1
 90
       50
176
     1
 90
       50
176
     1
 90
       50
176
     1
290
     0
176
     1
 90
       50
176
     1
 62
   256
176
     0
 40
1.0
176
     0
 90
        2
176
     1
  1
strokes_ogs.tif
176
     1
290
     0
176
     1
 40
1.0
176
     1
 40
1.0
176
     1
  0
VISUALSTYLE
  5
2D
102
{ACAD_REACTORS
330
2A
102
}
330
2A
100
AcDbVisualStyle
  2
Gouraud
 70
     2
177
     3
291
     1
 70
    58
 90
        2
176
     1
 90
        2
176
     1
 90
        1
176
     1
 90
        2
176
     1
 40
0.6
176
     1
 40
30.0
176
     1
 62
     7
420
 16777215
176
     1
 90
        0
176
     1
 90
        0
176
     1
 62
     7
176
     1
 62
   257
176
     1
 90
        1
176
     1
 90
        1
176
     1
 40
1.0
176
     1
 90
        0
176
     1
 62
     7
176
     1
 40
1.0
176
     1
 90
        1
176
     1
 90
        6
176
     1
 90
        2
176
     1
 62
     7
176
     1
 90
        5
176
     1
 90
        0
176
     1
 90
        0
176
     1
290
     0
176
     1
 90
       13
176
     1
 40
0.0
176
     1
 90
        0
176
     1
290
     0
176
     1
290
     1
176
     1
290
     1
176
     1
290
     0
176
     1
290
     0
176
     1
290
     0
176
     1
290
     0
176
     1
290
     0
176
     1
290
     0
176
     1
 90
       50
176
     1
 40
0.0
176
     1
 40
1.0
176
     1
 90
        0
176
     1
 62
    18
420
        0
176
     1
 90
       50
176
     1
 90
        3
176
     1
 62
     5
420
      255
176
     1
290
     0
176
     1
 90
       50
176
     1
 90
       50
176
     1
 90
       50
176
     1
290
     0
176
     1
 90
       50
176
     1
 62
   256
176
     0
 40
1.0
176
     0
 90
        2
176
     1
  1
strokes_ogs.tif
176
     1
290
     0
176
     1
 40
1.0
176
     1
 40
1.0
176
     1
  0
VISUALSTYLE
  5
2E
102
{ACAD_REACTORS
330
2A
102
}
330
2A
100
AcDbVisualStyle
  2
GouraudWithEdges
 70
     3
177
     3
291
     1
 70
    58
 90
        2
176
     1
 90
        2
176
     1
 90
        1
176
     1
 90
        2
176
     1
 40
0.6
176
     1
 40
30.0
176
     1
 62
     7
420
 16777215
176
     1
 90
        1
176
     1
 90
        0
176
     1
 62
     7
176
     1
 62
   257
176
     1
 90
        1
176
     1
 90
        1
176
     1
 40
1.0
176
     1
 90
        0
176
     1
 62
   257
176
     1
 40
1.0
176
     1
 90
        1
176
     1
 90
        6
176
     1
 90
        2
176
     1
 62
     7
176
     1
 90
        5
176
     1
 90
        0
176
     1
 90
        0
176
     1
290
     0
176
     1
 90
       13
176
     1
 40
0.0
176
     1
 90
        0
176
     1
290
     0
176
     1
290
     1
176
     1
290
     1
176
     1
290
     0
176
     1
290
     0
176
     1
290
     0
176
     1
290
     0
176
     1
290
     0
176
     1
290
     0
176
     1
 90
       50
176
     1
 40
0.0
176
     1
 40
1.0
176
     1
 90
        0
176
     1
 62
    18
420
        0
176
     1
 90
       50
176
     1
 90
        3
176
     1
 62
     5
420
      255
176
     1
290
     0
176
     1
 90
       50
176
     1
 90
       50
176
     1
 90
       50
176
     1
290
     0
176
     1
 90
       50
176
     1
 62
   256
176
     0
 40
1.0
176
     0
 90
        2
176
     1
  1
strokes_ogs.tif
176
     1
290
     0
176
     1
 40
1.0
176
     1
 40
1.0
176
     1
  0
VISUALSTYLE
  5
31
102
{ACAD_REACTORS
330
2A
102
}
330
2A
100
AcDbVisualStyle
  2
Hidden
 70
     6
177
     3
291
     0
 70
    58
 90
        1
176
     1
 90
        2
176
     1
 90
        2
176
     1
 90
        0
176
     1
 40
0.6
176
     1
 40
30.0
176
     1
 62
     7
420
 16777215
176
     1
 90
        2
176
     1
 90
        2
176
     1
 62
     7
176
     1
 62
   257
176
     1
 90
        2
176
     1
 90
        1
176
     1
 40
40.0
176
     1
 90
        0
176
     1
 62
   257
176
     1
 40
1.0
176
     1
 90
        1
176
     1
 90
        6
176
     1
 90
        2
176
     1
 62
     7
176
     1
 90
        3
176
     1
 90
        0
176
     1
 90
        0
176
     1
290
     0
176
     1
 90
        1
176
     1
 40
0.0
176
     1
 90
        0
176
     1
290
     0
176
     1
290
     1
176
     1
290
     1
176
     1
290
     0
176
     1
290
     0
176
     1
290
     0
176
     1
290
     0
176
     1
290
     0
176
     1
290
     0
176
     1
 90
       50
176
     1
 40
0.0
176
     1
 40
1.0
176
     1
 90
        0
176
     1
 62
    18
420
        0
176
     1
 90
       50
176
     1
 90
        3
176
     1
 62
     5
420
      255
176
     1
290
     0
176
     1
 90
       50
176
     1
 90
       50
176
     1
 90
       50
176
     1
290
     0
176
     1
 90
       50
176
     1
 62
   256
176
     0
 40
1.0
176
     0
 90
        2
176
     1
  1
strokes_ogs.tif
176
     1
290
     0
176
     1
 40
1.0
176
     1
 40
1.0
176
     1
  0
VISUALSTYLE
  5
3B
102
{ACAD_REACTORS
330
2A
102
}
330
2A
100
AcDbVisualStyle
  2
JitterOff
 70
    20
177
     3
291
     1
 70
    58
 90
        2
176
     0
 90
        2
176
     0
 90
        0
176
     0
 90
        0
176
     0
 40
0.6
176
     0
 40
30.0
176
     0
 62
     7
420
 16777215
176
     0
 90
        1
176
     0
 90
        4
176
     0
 62
     7
176
     0
 62
   257
176
     0
 90
        1
176
     0
 90
        1
176
     0
 40
1.0
176
     0
 90
       10
176
     2
 62
     7
176
     0
 40
1.0
176
     0
 90
        1
176
     0
 90
        6
176
     0
 90
        2
176
     0
 62
     7
176
     0
 90
        5
176
     0
 90
        0
176
     0
 90
        0
176
     0
290
     0
176
     0
 90
        1
176
     0
 40
0.0
176
     0
 90
        0
176
     0
290
     0
176
     0
290
     1
176
     0
290
     1
176
     0
290
     0
176
     0
290
     0
176
     0
290
     0
176
     0
290
     0
176
     0
290
     0
176
     0
290
     0
176
     0
 90
       50
176
     0
 40
0.0
176
     0
 40
1.0
176
     0
 90
        0
176
     0
 62
    18
420
        0
176
     0
 90
       50
176
     0
 90
        3
176
     0
 62
     5
420
      255
176
     0
290
     0
176
     0
 90
       50
176
     0
 90
       50
176
     0
 90
       50
176
     0
290
     0
176
     0
 90
       50
176
     0
 62
   256
176
     0
 40
1.0
176
     0
 90
        2
176
     0
  1
strokes_ogs.tif
176
     0
290
     0
176
     0
 40
1.0
176
     0
 40
1.0
176
     0
  0
VISUALSTYLE
  5
38
102
{ACAD_REACTORS
330
2A
102
}
330
2A
100
AcDbVisualStyle
  2
Linepattern
 70
    14
177
     3
291
     1
 70
    58
 90
        2
176
     1
 90
        2
176
     1
 90
        0
176
     1
 90
        0
176
     1
 40
0.6
176
     1
 40
30.0
176
     1
 62
     7
420
 16777215
176
     1
 90
        1
176
     1
 90
        4
176
     1
 62
     7
176
     1
 62
   257
176
     1
 90
        7
176
     1
 90
        7
176
     1
 40
1.0
176
     1
 90
        8
176
     1
 62
     7
176
     1
 40
1.0
176
     1
 90
        1
176
     1
 90
        6
176
     1
 90
        2
176
     1
 62
     7
176
     1
 90
        5
176
     1
 90
        0
176
     1
 90
        0
176
     1
290
     0
176
     1
 90
        1
176
     1
 40
0.0
176
     1
 90
        0
176
     1
290
     0
176
     1
290
     1
176
     1
290
     1
176
     1
290
     0
176
     1
290
     0
176
     1
290
     0
176
     1
290
     0
176
     1
290
     0
176
     1
290
     0
176
     1
 90
       50
176
     1
 40
0.0
176
     1
 40
1.0
176
     1
 90
        0
176
     1
 62
    18
420
        0
176
     1
 90
       50
176
     1
 90
        3
176
     1
 62
     5
420
      255
176
     1
290
     0
176
     1
 90
       50
176
     1
 90
       50
176
     1
 90
       50
176
     1
290
     0
176
     1
 90
       50
176
     1
 62
   256
176
     0
 40
1.0
176
     0
 90
        2
176
     1
  1
strokes_ogs.tif
176
     1
290
     0
176
     1
 40
1.0
176
     1
 40
1.0
176
     1
  0
VISUALSTYLE
  5
3C
102
{ACAD_REACTORS
330
2A
102
}
330
2A
100
AcDbVisualStyle
  2
OverhangOff
 70
    21
177
     3
291
     1
 70
    58
 90
        2
176
     0
 90
        2
176
     0
 90
        0
176
     0
 90
        0
176
     0
 40
0.6
176
     0
 40
30.0
176
     0
 62
     7
420
 16777215
176
     0
 90
        1
176
     0
 90
        4
176
     0
 62
     7
176
     0
 62
   257
176
     0
 90
        1
176
     0
 90
        1
176
     0
 40
1.0
176
     0
 90
        9
176
     2
 62
     7
176
     0
 40
1.0
176
     0
 90
        1
176
     0
 90
        6
176
     0
 90
        2
176
     0
 62
     7
176
     0
 90
        5
176
     0
 90
        0
176
     0
 90
        0
176
     0
290
     0
176
     0
 90
        1
176
     0
 40
0.0
176
     0
 90
        0
176
     0
290
     0
176
     0
290
     1
176
     0
290
     1
176
     0
290
     0
176
     0
290
     0
176
     0
290
     0
176
     0
290
     0
176
     0
290
     0
176
     0
290
     0
176
     0
 90
       50
176
     0
 40
0.0
176
     0
 40
1.0
176
     0
 90
        0
176
     0
 62
    18
420
        0
176
     0
 90
       50
176
     0
 90
        3
176
     0
 62
     5
420
      255
176
     0
290
     0
176
     0
 90
       50
176
     0
 90
       50
176
     0
 90
       50
176
     0
290
     0
176
     0
 90
       50
176
     0
 62
   256
176
     0
 40
1.0
176
     0
 90
        2
176
     0
  1
strokes_ogs.tif
176
     0
290
     0
176
     0
 40
1.0
176
     0
 40
1.0
176
     0
  0
VISUALSTYLE
  5
33
102
{ACAD_REACTORS
330
2A
102
}
330
2A
100
AcDbVisualStyle
  2
Realistic
 70
     8
177
     3
291
     0
 70
    58
 90
        2
176
     1
 90
        3
176
     1
 90
        0
176
     1
 90
        2
176
     1
 40
0.6
176
     1
 40
30.0
176
     1
 62
     7
420
 16777215
176
     1
 90
        0
176
     1
 90
        0
176
     1
 62
     7
176
     1
 62
   257
176
     1
 90
        1
176
     1
 90
        1
176
     1
 40
1.0
176
     1
 90
        8
176
     1
 62
   257
176
     1
 40
1.0
176
     1
 90
        1
176
     1
 90
        6
176
     1
 90
        2
176
     1
 62
     7
176
     1
 90
        3
176
     1
 90
        0
176
     1
 90
        0
176
     1
290
     0
176
     1
 90
       13
176
     1
 40
0.0
176
     1
 90
        0
176
     1
290
     0
176
     1
290
     1
176
     1
290
     1
176
     1
290
     0
176
     1
290
     0
176
     1
290
     0
176
     1
290
     0
176
     1
290
     0
176
     1
290
     0
176
     1
 90
       50
176
     1
 40
0.0
176
     1
 40
1.0
176
     1
 90
        0
176
     1
 62
    18
420
        0
176
     1
 90
       50
176
     1
 90
        3
176
     1
 62
     5
420
      255
176
     1
290
     0
176
     1
 90
       50
176
     1
 90
       50
176
     1
 90
       50
176
     1
290
     0
176
     1
 90
       50
176
     1
 62
   256
176
     0
 40
1.0
176
     0
 90
        2
176
     1
  1
strokes_ogs.tif
176
     1
290
     0
176
     1
 40
1.0
176
     1
 40
1.0
176
     1
  0
VISUALSTYLE
  5
42
102
{ACAD_REACTORS
330
2A
102
}
330
2A
100
AcDbVisualStyle
  2
Shaded
 70
    27
177
     3
291
     0
 70
    58
 90
        2
176
     1
 90
        2
176
     1
 90
        1
176
     1
 90
        2
176
     1
 40
0.6
176
     1
 40
30.0
176
     1
 62
     7
420
 16777215
176
     1
 90
        0
176
     1
 90
        4
176
     1
 62
     7
176
     1
 62
   257
176
     1
 90
        1
176
     1
 90
        1
176
     1
 40
1.0
176
     1
 90
        8
176
     1
 62
   257
176
     1
 40
1.0
176
     1
 90
        1
176
     1
 90
        6
176
     1
 90
        2
176
     1
 62
     8
420
  7895160
176
     1
 90
        3
176
     1
 90
        0
176
     1
 90
        0
176
     1
290
     0
176
     1
 90
        5
176
     1
 40
0.0
176
     1
 90
        0
176
     1
290
     0
176
     1
290
     1
176
     1
290
     1
176
     1
290
     0
176
     1
290
     0
176
     1
290
     0
176
     1
290
     0
176
     1
290
     0
176
     1
290
     0
176
     1
 90
       50
176
     1
 40
0.0
176
     1
 40
1.0
176
     1
 90
        0
176
     1
 62
    18
420
        0
176
     1
 90
       50
176
     1
 90
        3
176
     1
 62
     5
420
      255
176
     1
290
     0
176
     1
 90
       50
176
     1
 90
       50
176
     1
 90
       50
176
     1
290
     0
176
     1
 90
       50
176
     1
 62
   256
176
     0
 40
1.0
176
     0
 90
        2
176
     1
  1
strokes_ogs.tif
176
     1
290
     0
176
     1
 40
1.0
176
     1
 40
1.0
176
     1
  0
VISUALSTYLE
  5
41
102
{ACAD_REACTORS
330
2A
102
}
330
2A
100
AcDbVisualStyle
  2
Shaded with edges
 70
    26
177
     3
291
     0
 70
    58
 90
        2
176
     1
 90
        2
176
     1
 90
        1
176
     1
 90
        2
176
     1
 40
0.6
176
     1
 40
30.0
176
     1
 62
     7
420
 16777215
176
     1
 90
        1
176
     1
 90
       10
176
     1
 62
     7
176
     1
 62
   257
176
     1
 90
        2
176
     1
 90
        1
176
     1
 40
1.0
176
     1
 90
        8
176
     1
 62
   257
176
     1
 40
1.0
176
     1
 90
        1
176
     1
 90
        6
176
     1
 90
        2
176
     1
 62
     7
176
     1
 90
        3
176
     1
 90
        0
176
     1
 90
        0
176
     1
290
     0
176
     1
 90
        5
176
     1
 40
0.0
176
     1
 90
        0
176
     1
290
     0
176
     1
290
     1
176
     1
290
     1
176
     1
290
     0
176
     1
290
     0
176
     1
290
     0
176
     1
290
     0
176
     1
290
     0
176
     1
290
     0
176
     1
 90
       50
176
     1
 40
0.0
176
     1
 40
1.0
176
     1
 90
        0
176
     1
 62
    18
420
        0
176
     1
 90
       50
176
     1
 90
        3
176
     1
 62
     5
420
      255
176
     1
290
     0
176
     1
 90
       50
176
     1
 90
       50
176
     1
 90
       50
176
     1
290
     0
176
     1
 90
       50
176
     1
 62
   256
176
     0
 40
1.0
176
     0
 90
        2
176
     1
  1
strokes_ogs.tif
176
     1
290
     0
176
     1
 40
1.0
176
     1
 40
1.0
176
     1
  0
VISUALSTYLE
  5
3E
102
{ACAD_REACTORS
330
2A
102
}
330
2A
100
AcDbVisualStyle
  2
Shades of Gray
 70
    23
177
     3
291
     0
 70
    58
 90
        2
176
     1
 90
        2
176
     1
 90
        3
176
     1
 90
        0
176
     1
 40
0.6
176
     1
 40
30.0
176
     1
 62
     7
420
 16777215
176
     1
 90
        2
176
     1
 90
        2
176
     1
 62
     7
176
     1
 62
     7
176
     1
 90
        1
176
     1
 90
        1
176
     1
 40
40.0
176
     1
 90
        8
176
     1
 62
     7
176
     1
 40
1.0
176
     1
 90
        1
176
     1
 90
        6
176
     1
 90
        2
176
     1
 62
     7
176
     1
 90
        3
176
     1
 90
        0
176
     1
 90
        0
176
     1
290
     0
176
     1
 90
        1
176
     1
 40
0.0
176
     1
 90
        0
176
     1
290
     0
176
     1
290
     1
176
     1
290
     1
176
     1
290
     0
176
     1
290
     0
176
     1
290
     0
176
     1
290
     0
176
     1
290
     0
176
     1
290
     0
176
     1
 90
       50
176
     1
 40
0.0
176
     1
 40
1.0
176
     1
 90
        0
176
     1
 62
    18
420
        0
176
     1
 90
       50
176
     1
 90
        3
176
     1
 62
     5
420
      255
176
     1
290
     0
176
     1
 90
       50
176
     1
 90
       50
176
     1
 90
       50
176
     1
290
     0
176
     1
 90
       50
176
     1
 62
   256
176
     0
 40
1.0
176
     0
 90
        2
176
     1
  1
strokes_ogs.tif
176
     1
290
     0
176
     1
 40
1.0
176
     1
 40
1.0
176
     1
  0
VISUALSTYLE
  5
3F
102
{ACAD_REACTORS
330
2A
102
}
330
2A
100
AcDbVisualStyle
  2
Sketchy
 70
    24
177
     3
291
     0
 70
    58
 90
        1
176
     1
 90
        2
176
     1
 90
        2
176
     1
 90
        0
176
     1
 40
0.6
176
     1
 40
30.0
176
     1
 62
     7
420
 16777215
176
     1
 90
        2
176
     1
 90
        2
176
     1
 62
     7
176
     1
 62
     7
176
     1
 90
        1
176
     1
 90
        1
176
     1
 40
40.0
176
     1
 90
       11
176
     1
 62
     7
176
     1
 40
1.0
176
     1
 90
        1
176
     1
 90
        6
176
     1
 90
        2
176
     1
 62
     7
176
     1
 90
        6
176
     1
 90
        0
176
     1
 90
        0
176
     1
290
     0
176
     1
 90
        1
176
     1
 40
0.0
176
     1
 90
        0
176
     1
290
     0
176
     1
290
     1
176
     1
290
     1
176
     1
290
     0
176
     1
290
     0
176
     1
290
     0
176
     1
290
     0
176
     1
290
     0
176
     1
290
     0
176
     1
 90
       50
176
     1
 40
0.0
176
     1
 40
1.0
176
     1
 90
        0
176
     1
 62
    18
420
        0
176
     1
 90
       50
176
     1
 90
        3
176
     1
 62
     5
420
      255
176
     1
290
     0
176
     1
 90
       50
176
     1
 90
       50
176
     1
 90
       50
176
     1
290
     0
176
     1
 90
       50
176
     1
 62
   256
176
     0
 40
1.0
176
     0
 90
        2
176
     1
  1
strokes_ogs.tif
176
     1
290
     0
176
     1
 40
1.0
176
     1
 40
1.0
176
     1
  0
VISUALSTYLE
  5
37
102
{ACAD_REACTORS
330
2A
102
}
330
2A
100
AcDbVisualStyle
  2
Thicken
 70
    13
177
     3
291
     1
 70
    58
 90
        2
176
     1
 90
        2
176
     1
 90
        0
176
     1
 90
        0
176
     1
 40
0.6
176
     1
 40
30.0
176
     1
 62
     7
420
 16777215
176
     1
 90
        1
176
     1
 90
        4
176
     1
 62
     7
176
     1
 62
   257
176
     1
 90
        1
176
     1
 90
        1
176
     1
 40
1.0
176
     1
 90
       12
176
     1
 62
     7
176
     1
 40
1.0
176
     1
 90
        1
176
     1
 90
        6
176
     1
 90
        2
176
     1
 62
     7
176
     1
 90
        5
176
     1
 90
        0
176
     1
 90
        0
176
     1
290
     0
176
     1
 90
        1
176
     1
 40
0.0
176
     1
 90
        0
176
     1
290
     0
176
     1
290
     1
176
     1
290
     1
176
     1
290
     0
176
     1
290
     0
176
     1
290
     0
176
     1
290
     0
176
     1
290
     0
176
     1
290
     0
176
     1
 90
       50
176
     1
 40
0.0
176
     1
 40
1.0
176
     1
 90
        0
176
     1
 62
    18
420
        0
176
     1
 90
       50
176
     1
 90
        3
176
     1
 62
     5
420
      255
176
     1
290
     0
176
     1
 90
       50
176
     1
 90
       50
176
     1
 90
       50
176
     1
290
     0
176
     1
 90
       50
176
     1
 62
   256
176
     0
 40
1.0
176
     0
 90
        2
176
     1
  1
strokes_ogs.tif
176
     1
290
     0
176
     1
 40
1.0
176
     1
 40
1.0
176
     1
  0
VISUALSTYLE
  5
30
102
{ACAD_REACTORS
330
2A
102
}
330
2A
100
AcDbVisualStyle
  2
Wireframe
 70
     5
177
     3
291
     0
 70
    58
 90
        0
176
     1
 90
        2
176
     1
 90
        0
176
     1
 90
        0
176
     1
 40
0.6
176
     1
 40
30.0
176
     1
 62
     7
420
 16777215
176
     1
 90
        1
176
     1
 90
        4
176
     1
 62
     7
176
     1
 62
   257
176
     1
 90
        1
176
     1
 90
        1
176
     1
 40
1.0
176
     1
 90
        0
176
     1
 62
   257
176
     1
 40
1.0
176
     1
 90
        1
176
     1
 90
        6
176
     1
 90
        2
176
     1
 62
     7
176
     1
 90
        3
176
     1
 90
        0
176
     1
 90
        0
176
     1
290
     0
176
     1
 90
        1
176
     1
 40
0.0
176
     1
 90
        0
176
     1
290
     0
176
     1
290
     1
176
     1
290
     1
176
     1
290
     0
176
     1
290
     0
176
     1
290
     0
176
     1
290
     0
176
     1
290
     0
176
     1
290
     0
176
     1
 90
       50
176
     1
 40
0.0
176
     1
 40
1.0
176
     1
 90
        0
176
     1
 62
    18
420
        0
176
     1
 90
       50
176
     1
 90
        3
176
     1
 62
     5
420
      255
176
     1
290
     0
176
     1
 90
       50
176
     1
 90
       50
176
     1
 90
       50
176
     1
290
     0
176
     1
 90
       50
176
     1
 62
   256
176
     0
 40
1.0
176
     0
 90
        2
176
     1
  1
strokes_ogs.tif
176
     1
290
     0
176
     1
 40
1.0
176
     1
 40
1.0
176
     1
  0
VISUALSTYLE
  5
40
102
{ACAD_REACTORS
330
2A
102
}
330
2A
100
AcDbVisualStyle
  2
X-Ray
 70
    25
177
     3
291
     0
 70
    58
 90
        2
176
     1
 90
        2
176
     1
 90
        1
176
     1
 90
        1
176
     1
 40
0.5
176
     1
 40
30.0
176
     1
 62
     7
420
 16777215
176
     1
 90
        1
176
     1
 90
        0
176
     1
 62
     7
176
     1
 62
   257
176
     1
 90
        1
176
     1
 90
        1
176
     1
 40
1.0
176
     1
 90
        8
176
     1
 62
     7
176
     1
 40
1.0
176
     1
 90
        1
176
     1
 90
        6
176
     1
 90
        2
176
     1
 62
     7
176
     1
 90
        3
176
     1
 90
        0
176
     1
 90
        0
176
     1
290
     0
176
     1
 90
       13
176
     1
 40
0.0
176
     1
 90
        0
176
     1
290
     0
176
     1
290
     1
176
     1
290
     1
176
     1
290
     0
176
     1
290
     0
176
     1
290
     0
176
     1
290
     0
176
     1
290
     0
176
     1
290
     0
176
     1
 90
       50
176
     1
 40
0.0
176
     1
 40
1.0
176
     1
 90
        0
176
     1
 62
    18
420
        0
176
     1
 90
       50
176
     1
 90
        3
176
     1
 62
     5
420
      255
176
     1
290
     0
176
     1
 90
       50
176
     1
 90
       50
176
     1
 90
       50
176
     1
290
     0
176
     1
 90
       50
176
     1
 62
   256
176
     0
 40
1.0
176
     0
 90
        2
176
     1
  1
strokes_ogs.tif
176
     1
290
     0
176
     1
 40
1.0
176
     1
 40
1.0
176
     1
  0
DICTIONARYVAR
  5
140
102
{ACAD_REACTORS
330
13F
102
}
330
13F
100
DictionaryVariables
280
     0
  1
1:1
  0
DICTIONARYVAR
  5
148
102
{ACAD_REACTORS
330
13F
102
}
330
13F
100
DictionaryVariables
280
     0
  1
3.500000
  0
DICTIONARYVAR
  5
149
102
{ACAD_REACTORS
330
13F
102
}
330
13F
100
DictionaryVariables
280
     0
  1
acadiso.lin
  0
DICTIONARYVAR
  5
145
102
{ACAD_REACTORS
330
13F
102
}
330
13F
100
DictionaryVariables
280
     0
  1
Standard
  0
DICTIONARYVAR
  5
144
102
{ACAD_REACTORS
330
13F
102
}
330
13F
100
DictionaryVariables
280
     0
  1
Standard
  0
DICTIONARY
  5
141
330
6A
100
AcDbDictionary
280
     1
281
     1
  3
ACAD_ROUNDTRIP_2008_TABLESTYLE_CELLSTYLEMAP
360
142
  0
CELLSTYLEMAP
  5
142
102
{ACAD_REACTORS
330
141
102
}
330
141
100
AcDbCellStyleMap
 90
        3
300
CELLSTYLE
  1
TABLEFORMAT_BEGIN
 90
        5
170
     1
 91
        0
 92
    32768
 62
   257
 93
        1
300
CONTENTFORMAT
  1
CONTENTFORMAT_BEGIN
 90
        0
 91
        0
 92
        4
 93
        0
300

 40
0.0
140
1.0
 94
        5
 62
     0
340
11
144
6.0
309
CONTENTFORMAT_END
171
     1
301
MARGIN
  1
CELLMARGIN_BEGIN
 40
1.5
 40
1.5
 40
1.5
 40
1.5
 40
1.5
 40
1.5
309
CELLMARGIN_END
 94
        6
 95
        1
302
GRIDFORMAT
  1
GRIDFORMAT_BEGIN
 90
        0
 91
        1
 62
     0
 92
       -2
340
14
 93
        0
 40
0.045
309
GRIDFORMAT_END
 95
        2
302
GRIDFORMAT
  1
GRIDFORMAT_BEGIN
 90
        0
 91
        1
 62
     0
 92
       -2
340
14
 93
        0
 40
0.045
309
GRIDFORMAT_END
 95
        4
302
GRIDFORMAT
  1
GRIDFORMAT_BEGIN
 90
        0
 91
        1
 62
     0
 92
       -2
340
14
 93
        0
 40
0.045
309
GRIDFORMAT_END
 95
        8
302
GRIDFORMAT
  1
GRIDFORMAT_BEGIN
 90
        0
 91
        1
 62
     0
 92
       -2
340
14
 93
        0
 40
0.045
309
GRIDFORMAT_END
 95
       16
302
GRIDFORMAT
  1
GRIDFORMAT_BEGIN
 90
        0
 91
        1
 62
     0
 92
       -2
340
14
 93
        0
 40
0.045
309
GRIDFORMAT_END
 95
       32
302
GRIDFORMAT
  1
GRIDFORMAT_BEGIN
 90
        0
 91
        1
 62
     0
 92
       -2
340
14
 93
        0
 40
0.045
309
GRIDFORMAT_END
309
TABLEFORMAT_END
  1
CELLSTYLE_BEGIN
 90
        1
 91
        1
300
_TITLE
309
CELLSTYLE_END
300
CELLSTYLE
  1
TABLEFORMAT_BEGIN
 90
        5
170
     1
 91
        0
 92
        0
 62
   257
 93
        1
300
CONTENTFORMAT
  1
CONTENTFORMAT_BEGIN
 90
        0
 91
        0
 92
        4
 93
        0
300

 40
0.0
140
1.0
 94
        5
 62
     0
340
11
144
4.5
309
CONTENTFORMAT_END
171
     1
301
MARGIN
  1
CELLMARGIN_BEGIN
 40
1.5
 40
1.5
 40
1.5
 40
1.5
 40
1.5
 40
1.5
309
CELLMARGIN_END
 94
        6
 95
        1
302
GRIDFORMAT
  1
GRIDFORMAT_BEGIN
 90
        0
 91
        1
 62
     0
 92
       -2
340
14
 93
        0
 40
0.045
309
GRIDFORMAT_END
 95
        2
302
GRIDFORMAT
  1
GRIDFORMAT_BEGIN
 90
        0
 91
        1
 62
     0
 92
       -2
340
14
 93
        0
 40
0.045
309
GRIDFORMAT_END
 95
        4
302
GRIDFORMAT
  1
GRIDFORMAT_BEGIN
 90
        0
 91
        1
 62
     0
 92
       -2
340
14
 93
        0
 40
0.045
309
GRIDFORMAT_END
 95
        8
302
GRIDFORMAT
  1
GRIDFORMAT_BEGIN
 90
        0
 91
        1
 62
     0
 92
       -2
340
14
 93
        0
 40
0.045
309
GRIDFORMAT_END
 95
       16
302
GRIDFORMAT
  1
GRIDFORMAT_BEGIN
 90
        0
 91
        1
 62
     0
 92
       -2
340
14
 93
        0
 40
0.045
309
GRIDFORMAT_END
 95
       32
302
GRIDFORMAT
  1
GRIDFORMAT_BEGIN
 90
        0
 91
        1
 62
     0
 92
       -2
340
14
 93
        0
 40
0.045
309
GRIDFORMAT_END
309
TABLEFORMAT_END
  1
CELLSTYLE_BEGIN
 90
        2
 91
        1
300
_HEADER
309
CELLSTYLE_END
300
CELLSTYLE
  1
TABLEFORMAT_BEGIN
 90
        5
170
     1
 91
        0
 92
        0
 62
   257
 93
        1
300
CONTENTFORMAT
  1
CONTENTFORMAT_BEGIN
 90
        0
 91
        0
 92
        4
 93
        0
300

 40
0.0
140
1.0
 94
        2
 62
     0
340
11
144
4.5
309
CONTENTFORMAT_END
171
     1
301
MARGIN
  1
CELLMARGIN_BEGIN
 40
1.5
 40
1.5
 40
1.5
 40
1.5
 40
1.5
 40
1.5
309
CELLMARGIN_END
 94
        6
 95
        1
302
GRIDFORMAT
  1
GRIDFORMAT_BEGIN
 90
        0
 91
        1
 62
     0
 92
       -2
340
14
 93
        0
 40
0.045
309
GRIDFORMAT_END
 95
        2
302
GRIDFORMAT
  1
GRIDFORMAT_BEGIN
 90
        0
 91
        1
 62
     0
 92
       -2
340
14
 93
        0
 40
0.045
309
GRIDFORMAT_END
 95
        4
302
GRIDFORMAT
  1
GRIDFORMAT_BEGIN
 90
        0
 91
        1
 62
     0
 92
       -2
340
14
 93
        0
 40
0.045
309
GRIDFORMAT_END
 95
        8
302
GRIDFORMAT
  1
GRIDFORMAT_BEGIN
 90
        0
 91
        1
 62
     0
 92
       -2
340
14
 93
        0
 40
0.045
309
GRIDFORMAT_END
 95
       16
302
GRIDFORMAT
  1
GRIDFORMAT_BEGIN
 90
        0
 91
        1
 62
     0
 92
       -2
340
14
 93
        0
 40
0.045
309
GRIDFORMAT_END
 95
       32
302
GRIDFORMAT
  1
GRIDFORMAT_BEGIN
 90
        0
 91
        1
 62
     0
 92
       -2
340
14
 93
        0
 40
0.045
309
GRIDFORMAT_END
309
TABLEFORMAT_END
  1
CELLSTYLE_BEGIN
 90
        3
 91
        2
300
_DATA
309
CELLSTYLE_END
  0
ENDSEC
  0
EOF
