  0
SECTION
  2
HEADER
  9
$ACADVER
  1
AC1027
  9
$ACADMAINTVER
 70
   105
  9
$DWGCODEPAGE
  3
ANSI_1251
  9
$REQUIREDVERSIONS
160
                 0
  9
$INSBASE
 10
0.0
 20
0.0
 30
0.0
  9
$EXTMIN
 10
0.0
 20
0.0
 30
0.0
  9
$EXTMAX
 10
431.8
 20
279.4
 30
0.0
  9
$LIMMIN
 10
0.0
 20
0.0
  9
$LIMMAX
 10
431.8
 20
279.4
  9
$ORTHOMODE
 70
     0
  9
$REGENMODE
 70
     1
  9
$FILLMODE
 70
     1
  9
$QTEXTMODE
 70
     0
  9
$MIRRTEXT
 70
     1
  9
$LTSCALE
 40
1.0
  9
$ATTMODE
 70
     1
  9
$TEXTSIZE
 40
3.5
  9
$TRACEWID
 40
1.0
  9
$TEXTSTYLE
  7
Standard
  9
$CLAYER
  8
0
  9
$CELTYPE
  6
ByLayer
  9
$CECOLOR
 62
   256
  9
$CELTSCALE
 40
1.0
  9
$DISPSILH
 70
     0
  9
$DIMSCALE
 40
1.0
  9
$DIMASZ
 40
3.5
  9
$DIMEXO
 40
0.01
  9
$DIMDLI
 40
3.75
  9
$DIMRND
 40
0.0
  9
$DIMDLE
 40
0.0
  9
$DIMEXE
 40
1.0
  9
$DIMTP
 40
0.0
  9
$DIMTM
 40
0.0
  9
$DIMTXT
 40
3.5
  9
$DIMCEN
 40
2.5
  9
$DIMTSZ
 40
0.0
  9
$DIMTOL
 70
     0
  9
$DIMLIM
 70
     0
  9
$DIMTIH
 70
     1
  9
$DIMTOH
 70
     1
  9
$DIMSE1
 70
     0
  9
$DIMSE2
 70
     0
  9
$DIMTAD
 70
     1
  9
$DIMZIN
 70
     0
  9
$DIMBLK
  1

  9
$DIMASO
 70
     1
  9
$DIMSHO
 70
     1
  9
$DIMPOST
  1

  9
$DIMAPOST
  1

  9
$DIMALT
 70
     0
  9
$DIMALTD
 70
     3
  9
$DIMALTF
 40
0.0393700787
  9
$DIMLFAC
 40
1.0
  9
$DIMTOFL
 70
     1
  9
$DIMTVP
 40
0.0
  9
$DIMTIX
 70
     0
  9
$DIMSOXD
 70
     0
  9
$DIMSAH
 70
     0
  9
$DIMBLK1
  1

  9
$DIMBLK2
  1

  9
$DIMSTYLE
  2
ISO-25
  9
$DIMCLRD
 70
     0
  9
$DIMCLRE
 70
     0
  9
$DIMCLRT
 70
     0
  9
$DIMTFAC
 40
1.0
  9
$DIMGAP
 40
3.0
  9
$DIMJUST
 70
     0
  9
$DIMSD1
 70
     0
  9
$DIMSD2
 70
     0
  9
$DIMTOLJ
 70
     0
  9
$DIMTZIN
 70
     0
  9
$DIMALTZ
 70
     0
  9
$DIMALTTZ
 70
     0
  9
$DIMUPT
 70
     0
  9
$DIMDEC
 70
     2
  9
$DIMTDEC
 70
     3
  9
$DIMALTU
 70
     2
  9
$DIMALTTD
 70
     3
  9
$DIMTXSTY
  7
Standard
  9
$DIMAUNIT
 70
     0
  9
$DIMADEC
 70
     2
  9
$DIMALTRND
 40
0.0
  9
$DIMAZIN
 70
     0
  9
$DIMDSEP
 70
    44
  9
$DIMATFIT
 70
     3
  9
$DIMFRAC
 70
     0
  9
$DIMLDRBLK
  1

  9
$DIMLUNIT
 70
     2
  9
$DIMLWD
 70
    -2
  9
$DIMLWE
 70
    -2
  9
$DIMTMOVE
 70
     0
  9
$DIMFXL
 40
1.0
  9
$DIMFXLON
 70
     0
  9
$DIMJOGANG
 40
0.7853981634
  9
$DIMTFILL
 70
     0
  9
$DIMTFILLCLR
 70
     0
  9
$DIMARCSYM
 70
     0
  9
$DIMLTYPE
  6

  9
$DIMLTEX1
  6

  9
$DIMLTEX2
  6

  9
$DIMTXTDIRECTION
 70
     0
  9
$LUNITS
 70
     2
  9
$LUPREC
 70
     4
  9
$SKETCHINC
 40
1.0
  9
$FILLETRAD
 40
10.0
  9
$AUNITS
 70
     0
  9
$AUPREC
 70
     2
  9
$MENU
  1
.
  9
$ELEVATION
 40
0.0
  9
$PELEVATION
 40
0.0
  9
$THICKNESS
 40
0.0
  9
$LIMCHECK
 70
     0
  9
$CHAMFERA
 40
0.0
  9
$CHAMFERB
 40
0.0
  9
$CHAMFERC
 40
0.0
  9
$CHAMFERD
 40
0.0
  9
$SKPOLY
 70
     0
  9
$TDCREATE
 40
2459797.40421662
  9
$TDUCREATE
 40
2459797.27921662
  9
$TDUPDATE
 40
2459797.40421919
  9
$TDUUPDATE
 40
2459797.27921919
  9
$TDINDWG
 40
0.0000000116
  9
$TDUSRTIMER
 40
0.0000000116
  9
$USRTIMER
 70
     1
  9
$ANGBASE
 50
0.0
  9
$ANGDIR
 70
     0
  9
$PDMODE
 70
     0
  9
$PDSIZE
 40
-1.0
  9
$PLINEWID
 40
0.0
  9
$SPLFRAME
 70
     0
  9
$SPLINETYPE
 70
     6
  9
$SPLINESEGS
 70
     8
  9
$HANDSEED
  5
472
  9
$SURFTAB1
 70
     6
  9
$SURFTAB2
 70
     6
  9
$SURFTYPE
 70
     6
  9
$SURFU
 70
     6
  9
$SURFV
 70
     6
  9
$UCSBASE
  2

  9
$UCSNAME
  2

  9
$UCSORG
 10
0.0
 20
0.0
 30
0.0
  9
$UCSXDIR
 10
1.0
 20
0.0
 30
0.0
  9
$UCSYDIR
 10
0.0
 20
1.0
 30
0.0
  9
$UCSORTHOREF
  2

  9
$UCSORTHOVIEW
 70
     0
  9
$UCSORGTOP
 10
0.0
 20
0.0
 30
0.0
  9
$UCSORGBOTTOM
 10
0.0
 20
0.0
 30
0.0
  9
$UCSORGLEFT
 10
0.0
 20
0.0
 30
0.0
  9
$UCSORGRIGHT
 10
0.0
 20
0.0
 30
0.0
  9
$UCSORGFRONT
 10
0.0
 20
0.0
 30
0.0
  9
$UCSORGBACK
 10
0.0
 20
0.0
 30
0.0
  9
$PUCSBASE
  2

  9
$PUCSNAME
  2

  9
$PUCSORG
 10
0.0
 20
0.0
 30
0.0
  9
$PUCSXDIR
 10
1.0
 20
0.0
 30
0.0
  9
$PUCSYDIR
 10
0.0
 20
1.0
 30
0.0
  9
$PUCSORTHOREF
  2

  9
$PUCSORTHOVIEW
 70
     0
  9
$PUCSORGTOP
 10
0.0
 20
0.0
 30
0.0
  9
$PUCSORGBOTTOM
 10
0.0
 20
0.0
 30
0.0
  9
$PUCSORGLEFT
 10
0.0
 20
0.0
 30
0.0
  9
$PUCSORGRIGHT
 10
0.0
 20
0.0
 30
0.0
  9
$PUCSORGFRONT
 10
0.0
 20
0.0
 30
0.0
  9
$PUCSORGBACK
 10
0.0
 20
0.0
 30
0.0
  9
$USERI1
 70
     0
  9
$USERI2
 70
     0
  9
$USERI3
 70
     0
  9
$USERI4
 70
     0
  9
$USERI5
 70
     0
  9
$USERR1
 40
0.0
  9
$USERR2
 40
0.0
  9
$USERR3
 40
0.0
  9
$USERR4
 40
0.0
  9
$USERR5
 40
0.0
  9
$WORLDVIEW
 70
     1
  9
$SHADEDGE
 70
     3
  9
$SHADEDIF
 70
    70
  9
$TILEMODE
 70
     1
  9
$MAXACTVP
 70
    64
  9
$PINSBASE
 10
0.0
 20
0.0
 30
0.0
  9
$PLIMCHECK
 70
     0
  9
$PEXTMIN
 10
1.0000000000E+20
 20
1.0000000000E+20
 30
1.0000000000E+20
  9
$PEXTMAX
 10
-1.0000000000E+20
 20
-1.0000000000E+20
 30
-1.0000000000E+20
  9
$PLIMMIN
 10
0.0
 20
0.0
  9
$PLIMMAX
 10
420.0
 20
297.0
  9
$UNITMODE
 70
     0
  9
$VISRETAIN
 70
     1
  9
$PLINEGEN
 70
     0
  9
$PSLTSCALE
 70
     1
  9
$TREEDEPTH
 70
  3020
  9
$CMLSTYLE
  2
Standard
  9
$CMLJUST
 70
     0
  9
$CMLSCALE
 40
20.0
  9
$PROXYGRAPHICS
 70
     1
  9
$MEASUREMENT
 70
     1
  9
$CELWEIGHT
370
    -1
  9
$ENDCAPS
280
     0
  9
$JOINSTYLE
280
     0
  9
$LWDISPLAY
290
     1
  9
$INSUNITS
 70
     4
  9
$HYPERLINKBASE
  1

  9
$STYLESHEET
  1

  9
$XEDIT
290
     1
  9
$CEPSNTYPE
380
     0
  9
$PSTYLEMODE
290
     1
  9
$FINGERPRINTGUID
  2
{99806a5a-696d-47ce-8770-45722cc1958b}
  9
$VERSIONGUID
  2
{FAEB1C32-E019-11D5-929B-00C0DF256EC4}
  9
$EXTNAMES
290
     1
  9
$PSVPSCALE
 40
0.0
  9
$OLESTARTUP
290
     0
  9
$SORTENTS
280
   127
  9
$INDEXCTL
280
     0
  9
$HIDETEXT
280
     1
  9
$XCLIPFRAME
280
     2
  9
$HALOGAP
280
     0
  9
$OBSCOLOR
 70
   257
  9
$OBSLTYPE
280
     0
  9
$INTERSECTIONDISPLAY
280
     0
  9
$INTERSECTIONCOLOR
 70
   257
  9
$DIMASSOC
280
     2
  9
$PROJECTNAME
  1

  9
$CAMERADISPLAY
290
     0
  9
$LENSLENGTH
 40
50.0
  9
$CAMERAHEIGHT
 40
0.0
  9
$STEPSPERSEC
 40
2.0
  9
$STEPSIZE
 40
6.0
  9
$3DDWFPREC
 40
2.0
  9
$PSOLWIDTH
 40
5.0
  9
$PSOLHEIGHT
 40
80.0
  9
$LOFTANG1
 40
1.5707963268
  9
$LOFTANG2
 40
1.5707963268
  9
$LOFTMAG1
 40
0.0
  9
$LOFTMAG2
 40
0.0
  9
$LOFTPARAM
 70
     7
  9
$LOFTNORMALS
280
     1
  9
$LATITUDE
 40
37.795
  9
$LONGITUDE
 40
-122.394
  9
$NORTHDIRECTION
 40
0.0
  9
$TIMEZONE
 70
 -8000
  9
$LIGHTGLYPHDISPLAY
280
     1
  9
$TILEMODELIGHTSYNCH
280
     1
  9
$CMATERIAL
347
44
  9
$SOLIDHIST
280
     0
  9
$SHOWHIST
280
     1
  9
$DWFFRAME
280
     2
  9
$DGNFRAME
280
     2
  9
$REALWORLDSCALE
290
     1
  9
$INTERFERECOLOR
 62
   256
  9
$CSHADOW
280
     0
  9
$SHADOWPLANELOCATION
 40
0.0
  0
ENDSEC
  0
SECTION
  2
CLASSES
  0
CLASS
  1
ACDBDICTIONARYWDFLT
  2
AcDbDictionaryWithDefault
  3
ObjectDBX Classes
 90
        0
 91
        3
280
     0
281
     0
  0
CLASS
  1
VISUALSTYLE
  2
AcDbVisualStyle
  3
ObjectDBX Classes
 90
     4095
 91
        3
280
     0
281
     0
  0
CLASS
  1
MATERIAL
  2
AcDbMaterial
  3
ObjectDBX Classes
 90
     1153
 91
        3
280
     0
281
     0
  0
CLASS
  1
SCALE
  2
AcDbScale
  3
ObjectDBX Classes
 90
     1153
 91
        3
280
     0
281
     0
  0
CLASS
  1
TABLESTYLE
  2
AcDbTableStyle
  3
ObjectDBX Classes
 90
     4095
 91
        3
280
     0
281
     0
  0
CLASS
  1
MLEADERSTYLE
  2
AcDbMLeaderStyle
  3
ACDB_MLEADERSTYLE_CLASS
 90
     4095
 91
        3
280
     0
281
     0
  0
CLASS
  1
SUN
  2
AcDbSun
  3
SCENEOE
 90
     1153
 91
        3
280
     0
281
     0
  0
CLASS
  1
DICTIONARYVAR
  2
AcDbDictionaryVar
  3
ObjectDBX Classes
 90
        0
 91
        3
280
     0
281
     0
  0
CLASS
  1
CELLSTYLEMAP
  2
AcDbCellStyleMap
  3
ObjectDBX Classes
 90
     1152
 91
        3
280
     0
281
     0
  0
ENDSEC
  0
SECTION
  2
TABLES
  0
TABLE
  2
VPORT
  5
8
330
0
100
AcDbSymbolTable
 70
     1
  0
VPORT
  5
29
330
8
100
AcDbSymbolTableRecord
100
AcDbViewportTableRecord
  2
*Active
 70
     0
 10
0.0
 20
0.0
 11
1.0
 21
1.0
 12
215.9
 22
139.7
 13
0.0
 23
0.0
 14
10.0
 24
10.0
 15
10.0
 25
10.0
 16
0.0
 26
0.0
 36
1.0
 17
0.0
 27
0.0
 37
0.0
 40
279.4
 41
1.5454545455
 42
50.0
 43
0.0
 44
0.0
 50
0.0
 51
0.0
 71
     0
 72
  2000
 73
     1
 74
     3
 75
     0
 76
     0
 77
     0
 78
     0
281
     0
 65
     1
110
0.0
120
0.0
130
0.0
111
1.0
121
0.0
131
0.0
112
0.0
122
1.0
132
0.0
 79
     0
146
0.0
348
2F
 60
     3
 61
     5
292
     1
282
     1
141
0.0
142
0.0
 63
   250
361
6D
  0
ENDTAB
  0
TABLE
  2
LTYPE
  5
5
330
0
100
AcDbSymbolTable
 70
     6
  0
LTYPE
  5
14
330
5
100
AcDbSymbolTableRecord
100
AcDbLinetypeTableRecord
  2
ByBlock
 70
     0
  3

 72
    65
 73
     0
 40
0.0
  0
LTYPE
  5
15
330
5
100
AcDbSymbolTableRecord
100
AcDbLinetypeTableRecord
  2
ByLayer
 70
     0
  3

 72
    65
 73
     0
 40
0.0
  0
LTYPE
  5
16
330
5
100
AcDbSymbolTableRecord
100
AcDbLinetypeTableRecord
  2
Continuous
 70
     0
  3
Solid line
 72
    65
 73
     0
 40
0.0
  0
LTYPE
  5
6E
330
5
100
AcDbSymbolTableRecord
100
AcDbLinetypeTableRecord
  2
HIDDEN
 70
     0
  3
Hidden __ __ __ __ __ __ __ __ __ __ __ __ __ __
 72
    65
 73
     2
 40
1.905
 49
1.27
 74
     0
 49
-0.635
 74
     0
  0
LTYPE
  5
6F
330
5
100
AcDbSymbolTableRecord
100
AcDbLinetypeTableRecord
  2
PHANTOM
 70
     0
  3
Phantom ______  __  __  ______  __  __  ______
 72
    65
 73
     6
 40
12.7
 49
6.35
 74
     0
 49
-1.27
 74
     0
 49
1.27
 74
     0
 49
-1.27
 74
     0
 49
1.27
 74
     0
 49
-1.27
 74
     0
  0
LTYPE
  5
70
330
5
100
AcDbSymbolTableRecord
100
AcDbLinetypeTableRecord
  2
CENTER
 70
     0
  3
Center ____ _ ____ _ ____ _ ____ _ ____ _ ____
 72
    65
 73
     4
 40
10.16
 49
6.35
 74
     0
 49
-1.27
 74
     0
 49
1.27
 74
     0
 49
-1.27
 74
     0
  0
LTYPE
  5
71
330
5
100
AcDbSymbolTableRecord
100
AcDbLinetypeTableRecord
  2
CENTERX2
 70
     0
  3
Center (2x) ________  __  ________  __  _____
 72
    65
 73
     4
 40
20.32
 49
12.7
 74
     0
 49
-2.54
 74
     0
 49
2.54
 74
     0
 49
-2.54
 74
     0
  0
LTYPE
  5
72
330
5
100
AcDbSymbolTableRecord
100
AcDbLinetypeTableRecord
  2
DOT2
 70
     0
  3
Dot (.5x) ........................................
 72
    65
 73
     2
 40
0.635
 49
0.0
 74
     0
 49
-0.635
 74
     0
  0
ENDTAB
  0
TABLE
  2
LAYER
  5
2
330
0
100
AcDbSymbolTable
 70
     1
  0
LAYER
  5
10
330
2
100
AcDbSymbolTableRecord
100
AcDbLayerTableRecord
  2
0
 70
     0
 62
     7
  6
Continuous
370
    -3
390
F
347
46
348
0
  0
ENDTAB
  0
TABLE
  2
STYLE
  5
3
330
0
100
AcDbSymbolTable
 70
     1
  0
STYLE
  5
11
330
3
100
AcDbSymbolTableRecord
100
AcDbTextStyleTableRecord
  2
Standard
 70
     0
 40
0.0
 41
1.0
 50
0.0
 71
     0
 42
3.5
  3
txt
  4

  0
ENDTAB
  0
TABLE
  2
VIEW
  5
6
330
0
100
AcDbSymbolTable
 70
     0
  0
ENDTAB
  0
TABLE
  2
UCS
  5
7
330
0
100
AcDbSymbolTable
 70
     0
  0
ENDTAB
  0
TABLE
  2
APPID
  5
9
330
0
100
AcDbSymbolTable
 70
     1
  0
APPID
  5
12
330
9
100
AcDbSymbolTableRecord
100
AcDbRegAppTableRecord
  2
ACAD
 70
     0
  0
ENDTAB
  0
TABLE
  2
DIMSTYLE
  5
A
330
0
100
AcDbSymbolTable
 70
     1
100
AcDbDimStyleTable
  0
DIMSTYLE
105
27
330
A
100
AcDbSymbolTableRecord
100
AcDbDimStyleTableRecord
  2
ISO-25
 70
     0
 41
2.5
 42
0.625
 43
3.75
 44
1.25
 73
     0
 74
     0
 77
     1
 78
     8
140
2.5
141
2.5
143
0.0393700787
147
0.625
171
     3
172
     1
178
     0
271
     2
272
     2
274
     3
278
    44
283
     0
284
     8
340
11
  0
ENDTAB
  0
TABLE
  2
BLOCK_RECORD
  5
1
330
0
100
AcDbSymbolTable
 70
     1
  0
BLOCK_RECORD
  5
1F
330
1
100
AcDbSymbolTableRecord
100
AcDbBlockTableRecord
  2
*Model_Space
340
22
 70
     0
280
     1
281
     0
  0
BLOCK_RECORD
  5
1B
330
1
100
AcDbSymbolTableRecord
100
AcDbBlockTableRecord
  2
*Paper_Space
340
1E
 70
     0
280
     1
281
     0
  0
BLOCK_RECORD
  5
23
330
1
100
AcDbSymbolTableRecord
100
AcDbBlockTableRecord
  2
*Paper_Space0
340
26
 70
     0
280
     1
281
     0
  0
ENDTAB
  0
ENDSEC
  0
SECTION
  2
BLOCKS
  0
BLOCK
  5
20
330
1F
100
AcDbEntity
  8
0
100
AcDbBlockBegin
  2
*Model_Space
 70
     0
 10
0.0
 20
0.0
 30
0.0
  3
*Model_Space
  1

  0
ENDBLK
  5
21
330
1F
100
AcDbEntity
  8
0
100
AcDbBlockEnd
  0
BLOCK
  5
1C
330
1B
100
AcDbEntity
 67
     1
  8
0
100
AcDbBlockBegin
  2
*Paper_Space
 70
     0
 10
0.0
 20
0.0
 30
0.0
  3
*Paper_Space
  1

  0
ENDBLK
  5
1D
330
1B
100
AcDbEntity
 67
     1
  8
0
100
AcDbBlockEnd
  0
BLOCK
  5
24
330
23
100
AcDbEntity
  8
0
100
AcDbBlockBegin
  2
*Paper_Space0
 70
     0
 10
0.0
 20
0.0
 30
0.0
  3
*Paper_Space0
  1

  0
ENDBLK
  5
25
330
23
100
AcDbEntity
  8
0
100
AcDbBlockEnd
  0
ENDSEC
  0
SECTION
  2
ENTITIES
  0
LINE
  5
73
330
1F
100
AcDbEntity
  8
0
  6
Continuous
 62
     7
370
    50
100
AcDbLine
 10
426.0674558206
 20
190.6036345421
 30
0.0
 11
-3.9325441794
 21
190.6036345421
 31
0.0
  0
LINE
  5
74
330
1F
100
AcDbEntity
  8
0
  6
Continuous
 62
     7
370
    50
100
AcDbLine
 10
21.5598629081
 20
175.2695965983
 30
0.0
 11
22.5255669585
 21
175.2695965983
 31
0.0
  0
LINE
  5
75
330
1F
100
AcDbEntity
  8
0
  6
Continuous
 62
     7
370
    50
100
AcDbLine
 10
399.6093446826
 20
175.2695965983
 30
0.0
 11
400.575048733
 21
175.2695965983
 31
0.0
  0
LINE
  5
76
330
1F
100
AcDbEntity
  8
0
  6
Continuous
 62
     7
370
    50
100
AcDbLine
 10
24.5348232147
 20
171.0216765035
 30
0.0
 11
26.0415794938
 21
171.0216765035
 31
0.0
  0
LINE
  5
77
330
1F
100
AcDbEntity
  8
0
  6
Continuous
 62
     7
370
    50
100
AcDbLine
 10
396.0933321474
 20
171.0216765035
 30
0.0
 11
397.6000884264
 21
171.0216765035
 31
0.0
  0
LINE
  5
78
330
1F
100
AcDbEntity
  8
0
  6
Continuous
 62
     7
370
    50
100
AcDbLine
 10
24.0893855386
 20
128.0447172284
 30
0.0
 11
398.0455261025
 21
128.0447172284
 31
0.0
  0
LWPOLYLINE
  5
79
330
1F
100
AcDbEntity
  8
0
  6
Continuous
 62
     7
370
    50
100
AcDbPolyline
 90
       27
 70
   128
 43
0.0
 10
23.9249694097
 20
126.8536345421
 10
23.7513744286
 20
126.8219684111
 10
23.6002599714
 20
126.7432060641
 10
23.4716260384
 20
126.639409058
 10
23.3654726294
 20
126.5289618796
 10
23.2817997444
 20
126.4263459104
 10
23.2206073835
 20
126.3423384544
 10
23.1818955467
 20
126.284407628
 10
23.1709698248
 20
126.266754491
 10
23.1673062938
 20
126.2603615356
 10
23.1662526916
 20
126.2583571377
 10
23.1658972035
 20
126.2576326858
 10
23.1657617163
 20
126.2573444794
 10
23.1657061535
 20
126.2572235882
 10
23.1656824902
 20
126.2571715425
 10
23.1656722303
 20
126.2571488644
 10
23.1656677453
 20
126.257138929
 10
23.1656657776
 20
126.2571345658
 10
23.165664234
 20
126.257131141
 10
23.0856215362
 20
126.0710108141
 10
23.0035121659
 20
125.8648104868
 10
22.9193361231
 20
125.640941107
 10
22.8330934077
 20
125.4020202135
 10
22.7447840197
 20
125.1508413311
 10
22.6544079592
 20
124.8903413077
 10
22.5619652262
 20
124.6235659762
 10
22.4674558206
 20
124.3536345421
  0
LINE
  5
7A
330
1F
100
AcDbEntity
  8
0
  6
Continuous
 62
     7
370
    50
100
AcDbLine
 10
398.2099422314
 20
126.8536345421
 30
0.0
 11
23.9249694097
 21
126.8536345421
 31
0.0
  0
LINE
  5
7B
330
1F
100
AcDbEntity
  8
0
  6
Continuous
 62
     7
370
    50
100
AcDbLine
 10
22.4674558206
 20
124.3536345421
 30
0.0
 11
399.6674558206
 21
124.3536345421
 31
0.0
  0
LWPOLYLINE
  5
7C
330
1F
100
AcDbEntity
  8
0
  6
Continuous
 62
     7
370
    50
100
AcDbPolyline
 90
       27
 70
   128
 43
0.0
 10
398.2099422314
 20
126.8536345421
 10
398.3835372126
 20
126.8219684111
 10
398.5346516697
 20
126.7432060641
 10
398.6632856028
 20
126.639409058
 10
398.7694390118
 20
126.5289618796
 10
398.8531118967
 20
126.4263459104
 10
398.9143042576
 20
126.3423384544
 10
398.9530160944
 20
126.284407628
 10
398.9639418163
 20
126.266754491
 10
398.9676053473
 20
126.2603615356
 10
398.9686589495
 20
126.2583571377
 10
398.9690144376
 20
126.2576326858
 10
398.9691499248
 20
126.2573444794
 10
398.9692054876
 20
126.2572235882
 10
398.9692291509
 20
126.2571715425
 10
398.9692394108
 20
126.2571488644
 10
398.9692438958
 20
126.257138929
 10
398.9692458635
 20
126.2571345658
 10
398.9692474072
 20
126.257131141
 10
399.0492901049
 20
126.0710108141
 10
399.1313994752
 20
125.8648104868
 10
399.215575518
 20
125.640941107
 10
399.3018182334
 20
125.4020202135
 10
399.3901276214
 20
125.1508413311
 10
399.4805036819
 20
124.8903413077
 10
399.572946415
 20
124.6235659762
 10
399.6674558206
 20
124.3536345421
  0
ARC
  5
7D
330
1F
100
AcDbEntity
  8
0
  6
Continuous
 62
     7
370
    50
100
AcDbCircle
 10
442.8174558206
 20
108.5036345421
 30
0.0
 40
3.250000000000057
100
AcDbArc
 50
90.0
 51
270.0
  0
LINE
  5
7E
330
1F
100
AcDbEntity
  8
0
  6
Continuous
 62
     7
370
    50
100
AcDbLine
 10
447.3174558206
 20
105.2536345421
 30
0.0
 11
442.8174558206
 21
105.2536345421
 31
0.0
  0
ARC
  5
7F
330
1F
100
AcDbEntity
  8
0
  6
Continuous
 62
     7
370
    50
100
AcDbCircle
 10
447.3174558206
 20
108.5036345421
 30
0.0
 40
3.250000000000057
100
AcDbArc
 50
270.0
 51
90.0
  0
LINE
  5
80
330
1F
100
AcDbEntity
  8
0
  6
Continuous
 62
     7
370
    50
100
AcDbLine
 10
447.3174558206
 20
111.7536345421
 30
0.0
 11
442.8174558206
 21
111.7536345421
 31
0.0
  0
LINE
  5
81
330
1F
100
AcDbEntity
  8
0
  6
Continuous
 62
     7
370
    50
100
AcDbLine
 10
447.3174558206
 20
181.4536345421
 30
0.0
 11
442.8174558206
 21
181.4536345421
 31
0.0
  0
ARC
  5
82
330
1F
100
AcDbEntity
  8
0
  6
Continuous
 62
     7
370
    50
100
AcDbCircle
 10
447.3174558206
 20
184.7036345421
 30
0.0
 40
3.250000000000114
100
AcDbArc
 50
270.0
 51
90.0
  0
LINE
  5
83
330
1F
100
AcDbEntity
  8
0
  6
Continuous
 62
     7
370
    50
100
AcDbLine
 10
447.3174558206
 20
187.9536345421
 30
0.0
 11
442.8174558206
 21
187.9536345421
 31
0.0
  0
ARC
  5
84
330
1F
100
AcDbEntity
  8
0
  6
Continuous
 62
     7
370
    50
100
AcDbCircle
 10
442.8174558206
 20
184.7036345421
 30
0.0
 40
3.250000000000114
100
AcDbArc
 50
90.0
 51
270.0
  0
ARC
  5
85
330
1F
100
AcDbEntity
  8
0
  6
Continuous
 62
     7
370
    50
100
AcDbCircle
 10
426.3174558206
 20
187.603634542
 30
0.0
 40
0.2500000000001137
100
AcDbArc
 50
180.0
 51
0.0
  0
LINE
  5
86
330
1F
100
AcDbEntity
  8
0
  6
Continuous
 62
     7
370
    50
100
AcDbLine
 10
426.5674558206
 20
188.6036345421
 30
0.0
 11
426.5674558206
 21
187.603634542
 31
0.0
  0
ARC
  5
87
330
1F
100
AcDbEntity
  8
0
  6
Continuous
 62
     7
370
    50
100
AcDbCircle
 10
428.5674558206
 20
188.6036345421
 30
0.0
 40
2.0
100
AcDbArc
 50
90.0
 51
180.0
  0
LINE
  5
88
330
1F
100
AcDbEntity
  8
0
  6
Continuous
 62
     7
370
    50
100
AcDbLine
 10
428.5674558206
 20
190.6036345421
 30
0.0
 11
450.5674558206
 21
190.6036345421
 31
0.0
  0
ARC
  5
89
330
1F
100
AcDbEntity
  8
0
  6
Continuous
 62
     7
370
    50
100
AcDbCircle
 10
450.5674558206
 20
188.6036345421
 30
0.0
 40
2.0
100
AcDbArc
 50
0.0
 51
90.0
  0
LINE
  5
8A
330
1F
100
AcDbEntity
  8
0
  6
Continuous
 62
     7
370
    50
100
AcDbLine
 10
452.5674558206
 20
188.6036345421
 30
0.0
 11
452.5674558206
 21
104.6036345421
 31
0.0
  0
ARC
  5
8B
330
1F
100
AcDbEntity
  8
0
  6
Continuous
 62
     7
370
    50
100
AcDbCircle
 10
450.5674558206
 20
104.6036345421
 30
0.0
 40
2.0
100
AcDbArc
 50
270.0
 51
360.0
  0
LINE
  5
8C
330
1F
100
AcDbEntity
  8
0
  6
Continuous
 62
     7
370
    50
100
AcDbLine
 10
450.5674558206
 20
102.6036345421
 30
0.0
 11
428.5674558206
 21
102.6036345421
 31
0.0
  0
ARC
  5
8D
330
1F
100
AcDbEntity
  8
0
  6
Continuous
 62
     7
370
    50
100
AcDbCircle
 10
428.5674558206
 20
104.6036345421
 30
0.0
 40
2.0
100
AcDbArc
 50
180.0
 51
270.0
  0
LINE
  5
8E
330
1F
100
AcDbEntity
  8
0
  6
Continuous
 62
     7
370
    50
100
AcDbLine
 10
426.5674558206
 20
105.6036345421
 30
0.0
 11
426.5674558206
 21
104.6036345421
 31
0.0
  0
ARC
  5
8F
330
1F
100
AcDbEntity
  8
0
  6
Continuous
 62
     7
370
    50
100
AcDbCircle
 10
426.3174558206
 20
105.6036345421
 30
0.0
 40
0.2500000000001137
100
AcDbArc
 50
0.0
 51
180.0
  0
LINE
  5
90
330
1F
100
AcDbEntity
  8
0
  6
Continuous
 62
     7
370
    50
100
AcDbLine
 10
426.0674558206
 20
105.1036345421
 30
0.0
 11
426.0674558206
 21
105.6036345421
 31
0.0
  0
LINE
  5
91
330
1F
100
AcDbEntity
  8
0
  6
Continuous
 62
     7
370
    50
100
AcDbLine
 10
-3.9325441794
 20
105.1036345421
 30
0.0
 11
426.0674558206
 21
105.1036345421
 31
0.0
  0
LINE
  5
92
330
1F
100
AcDbEntity
  8
0
  6
Continuous
 62
     7
370
    50
100
AcDbLine
 10
-3.9325441794
 20
105.1036345421
 30
0.0
 11
-3.9325441794
 21
105.6036345421
 31
0.0
  0
ARC
  5
93
330
1F
100
AcDbEntity
  8
0
  6
Continuous
 62
     7
370
    50
100
AcDbCircle
 10
-4.1825441794
 20
105.6036345421
 30
0.0
 40
0.2500000000000835
100
AcDbArc
 50
0.0
 51
180.0
  0
LINE
  5
94
330
1F
100
AcDbEntity
  8
0
  6
Continuous
 62
     7
370
    50
100
AcDbLine
 10
-4.4325441794
 20
105.6036345421
 30
0.0
 11
-4.4325441794
 21
104.6036345421
 31
0.0
  0
ARC
  5
95
330
1F
100
AcDbEntity
  8
0
  6
Continuous
 62
     7
370
    50
100
AcDbCircle
 10
-6.4325441794
 20
104.6036345421
 30
0.0
 40
2.0
100
AcDbArc
 50
270.0
 51
0.0
  0
LINE
  5
96
330
1F
100
AcDbEntity
  8
0
  6
Continuous
 62
     7
370
    50
100
AcDbLine
 10
-28.4325441794
 20
102.6036345421
 30
0.0
 11
-6.4325441794
 21
102.6036345421
 31
0.0
  0
ARC
  5
97
330
1F
100
AcDbEntity
  8
0
  6
Continuous
 62
     7
370
    50
100
AcDbCircle
 10
-28.4325441794
 20
104.6036345421
 30
0.0
 40
2.0
100
AcDbArc
 50
180.0
 51
270.0
  0
LINE
  5
98
330
1F
100
AcDbEntity
  8
0
  6
Continuous
 62
     7
370
    50
100
AcDbLine
 10
-30.4325441794
 20
188.6036345421
 30
0.0
 11
-30.4325441794
 21
104.6036345421
 31
0.0
  0
ARC
  5
99
330
1F
100
AcDbEntity
  8
0
  6
Continuous
 62
     7
370
    50
100
AcDbCircle
 10
-28.4325441794
 20
188.6036345421
 30
0.0
 40
2.0
100
AcDbArc
 50
90.0
 51
180.0
  0
LINE
  5
9A
330
1F
100
AcDbEntity
  8
0
  6
Continuous
 62
     7
370
    50
100
AcDbLine
 10
-6.4325441794
 20
190.6036345421
 30
0.0
 11
-28.4325441794
 21
190.6036345421
 31
0.0
  0
ARC
  5
9B
330
1F
100
AcDbEntity
  8
0
  6
Continuous
 62
     7
370
    50
100
AcDbCircle
 10
-6.4325441794
 20
188.6036345421
 30
0.0
 40
2.0
100
AcDbArc
 50
0.0
 51
90.0
  0
LINE
  5
9C
330
1F
100
AcDbEntity
  8
0
  6
Continuous
 62
     7
370
    50
100
AcDbLine
 10
-4.4325441794
 20
188.6036345421
 30
0.0
 11
-4.4325441794
 21
187.603634542
 31
0.0
  0
ARC
  5
9D
330
1F
100
AcDbEntity
  8
0
  6
Continuous
 62
     7
370
    50
100
AcDbCircle
 10
-4.1825441794
 20
187.603634542
 30
0.0
 40
0.2500000000000835
100
AcDbArc
 50
180.0
 51
0.0
  0
LINE
  5
9E
330
1F
100
AcDbEntity
  8
0
  6
Continuous
 62
     7
370
    50
100
AcDbLine
 10
-3.9325441794
 20
187.603634542
 30
0.0
 11
-3.9325441794
 21
188.1036345421
 31
0.0
  0
LINE
  5
9F
330
1F
100
AcDbEntity
  8
0
  6
Continuous
 62
     7
370
    50
100
AcDbLine
 10
426.0674558206
 20
188.1036345421
 30
0.0
 11
-3.9325441794
 21
188.1036345421
 31
0.0
  0
LINE
  5
A0
330
1F
100
AcDbEntity
  8
0
  6
Continuous
 62
     7
370
    50
100
AcDbLine
 10
426.0674558206
 20
187.603634542
 30
0.0
 11
426.0674558206
 21
188.1036345421
 31
0.0
  0
ARC
  5
A1
330
1F
100
AcDbEntity
  8
0
  6
Continuous
 62
     7
370
    50
100
AcDbCircle
 10
-25.1825441794
 20
108.5036345421
 30
0.0
 40
3.250000000000057
100
AcDbArc
 50
90.0
 51
270.0
  0
LINE
  5
A2
330
1F
100
AcDbEntity
  8
0
  6
Continuous
 62
     7
370
    50
100
AcDbLine
 10
-25.1825441794
 20
105.2536345421
 30
0.0
 11
-20.6825441794
 21
105.2536345421
 31
0.0
  0
ARC
  5
A3
330
1F
100
AcDbEntity
  8
0
  6
Continuous
 62
     7
370
    50
100
AcDbCircle
 10
-20.6825441794
 20
108.5036345421
 30
0.0
 40
3.250000000000057
100
AcDbArc
 50
270.0
 51
90.0
  0
LINE
  5
A4
330
1F
100
AcDbEntity
  8
0
  6
Continuous
 62
     7
370
    50
100
AcDbLine
 10
-25.1825441794
 20
111.7536345421
 30
0.0
 11
-20.6825441794
 21
111.7536345421
 31
0.0
  0
LINE
  5
A5
330
1F
100
AcDbEntity
  8
0
  6
Continuous
 62
     7
370
    50
100
AcDbLine
 10
-25.1825441794
 20
187.9536345421
 30
0.0
 11
-20.6825441794
 21
187.9536345421
 31
0.0
  0
ARC
  5
A6
330
1F
100
AcDbEntity
  8
0
  6
Continuous
 62
     7
370
    50
100
AcDbCircle
 10
-25.1825441794
 20
184.7036345421
 30
0.0
 40
3.250000000000114
100
AcDbArc
 50
90.0
 51
270.0
  0
LINE
  5
A7
330
1F
100
AcDbEntity
  8
0
  6
Continuous
 62
     7
370
    50
100
AcDbLine
 10
-25.1825441794
 20
181.4536345421
 30
0.0
 11
-20.6825441794
 21
181.4536345421
 31
0.0
  0
ARC
  5
A8
330
1F
100
AcDbEntity
  8
0
  6
Continuous
 62
     7
370
    50
100
AcDbCircle
 10
-20.6825441794
 20
184.7036345421
 30
0.0
 40
3.250000000000114
100
AcDbArc
 50
270.0
 51
90.0
  0
ARC
  5
A9
330
1F
100
AcDbEntity
  8
0
  6
Continuous
 62
     7
370
    50
100
AcDbCircle
 10
22.4674558206
 20
174.2036345421
 30
0.0
 40
1.400000000000013
100
AcDbArc
 50
90.0
 51
180.0
  0
LINE
  5
AA
330
1F
100
AcDbEntity
  8
0
  6
Continuous
 62
     7
370
    50
100
AcDbLine
 10
21.0674558206
 20
125.7536345421
 30
0.0
 11
21.0674558206
 21
174.2036345421
 31
0.0
  0
ARC
  5
AB
330
1F
100
AcDbEntity
  8
0
  6
Continuous
 62
     7
370
    50
100
AcDbCircle
 10
22.4674558206
 20
125.7536345421
 30
0.0
 40
1.400000000000013
100
AcDbArc
 50
180.0
 51
270.0
  0
LINE
  5
AC
330
1F
100
AcDbEntity
  8
0
  6
Continuous
 62
     7
370
    50
100
AcDbLine
 10
401.0674558206
 20
125.7536345421
 30
0.0
 11
401.0674558206
 21
174.2036345421
 31
0.0
  0
ARC
  5
AD
330
1F
100
AcDbEntity
  8
0
  6
Continuous
 62
     7
370
    50
100
AcDbCircle
 10
399.6674558206
 20
174.2036345421
 30
0.0
 40
1.399999999999977
100
AcDbArc
 50
0.0
 51
90.0
  0
LINE
  5
AE
330
1F
100
AcDbEntity
  8
0
  6
Continuous
 62
     7
370
    50
100
AcDbLine
 10
22.4674558206
 20
175.6036345421
 30
0.0
 11
399.6674558206
 21
175.6036345421
 31
0.0
  0
ARC
  5
AF
330
1F
100
AcDbEntity
  8
0
  6
Continuous
 62
     7
370
    50
100
AcDbCircle
 10
399.6674558206
 20
125.7536345421
 30
0.0
 40
1.400000000000006
100
AcDbArc
 50
270.0
 51
0.0
  0
ARC
  5
B0
330
1F
100
AcDbEntity
  8
0
  6
Continuous
 62
     7
370
    50
100
AcDbCircle
 10
17.6725340402
 20
142.8752241128
 30
0.0
 40
17.45492261005836
100
AcDbArc
 50
281.2153134535
 51
288.4828838536
  0
ARC
  5
B1
330
1F
100
AcDbEntity
  8
0
  6
Continuous
 62
     7
370
    50
100
AcDbCircle
 10
18.8552053005
 20
161.5595258772
 30
0.0
 40
12.83618075179526
100
AcDbArc
 50
70.0613512668
 51
80.0758143769
  0
LINE
  5
B2
330
1F
100
AcDbEntity
  8
0
  6
Continuous
 62
     7
370
    50
100
AcDbLine
 10
426.0674558206
 20
188.1036345421
 30
0.0
 11
426.0674558206
 21
190.6036345421
 31
0.0
  0
LINE
  5
B3
330
1F
100
AcDbEntity
  8
0
  6
Continuous
 62
     7
370
    50
100
AcDbLine
 10
-3.9325441794
 20
188.1036345421
 30
0.0
 11
-3.9325441794
 21
190.6036345421
 31
0.0
  0
ARC
  5
B4
330
1F
100
AcDbEntity
  8
0
  6
Continuous
 62
     7
370
    50
100
AcDbCircle
 10
404.4623776009
 20
142.8752241128
 30
0.0
 40
17.45492261003219
100
AcDbArc
 50
251.5171161464
 51
258.7846865465
  0
ARC
  5
B5
330
1F
100
AcDbEntity
  8
0
  6
Continuous
 62
     7
370
    50
100
AcDbCircle
 10
403.2797063406
 20
161.5595258772
 30
0.0
 40
12.83618075179719
100
AcDbArc
 50
99.9241856231
 51
109.9386487332
  0
LINE
  5
B6
330
1F
100
AcDbEntity
  8
0
  6
Continuous
 62
     7
370
    50
100
AcDbLine
 10
426.0674558206
 20
102.6036345421
 30
0.0
 11
426.0674558206
 21
105.1036345421
 31
0.0
  0
LINE
  5
B7
330
1F
100
AcDbEntity
  8
0
  6
Continuous
 62
     7
370
    50
100
AcDbLine
 10
-3.9325441794
 20
102.6036345421
 30
0.0
 11
426.0674558206
 21
102.6036345421
 31
0.0
  0
LINE
  5
B8
330
1F
100
AcDbEntity
  8
0
  6
Continuous
 62
     7
370
    50
100
AcDbLine
 10
-3.9325441794
 20
102.6036345421
 30
0.0
 11
-3.9325441794
 21
105.1036345421
 31
0.0
  0
ARC
  5
B9
330
1F
100
AcDbEntity
  8
0
  6
Continuous
 62
     7
370
    50
100
AcDbCircle
 10
357.5431275754
 20
182.6343416749
 30
0.0
 40
42.70702369511564
100
AcDbArc
 50
348.568121416
 51
350.5244631688
  0
LINE
  5
BA
330
1F
100
AcDbEntity
  8
0
  6
Continuous
 62
     7
370
    50
100
AcDbLine
 10
22.732022918
 20
174.1696934512
 30
0.0
 11
399.4028887231
 21
174.1696934512
 31
0.0
  0
ARC
  5
BB
330
1F
100
AcDbEntity
  8
0
  6
Continuous
 62
     7
370
    50
100
AcDbCircle
 10
64.5917840657
 20
182.6343416749
 30
0.0
 40
42.70702369507816
100
AcDbArc
 50
189.4755368312
 51
191.431878584
  0
LINE
  5
BC
330
1F
100
AcDbEntity
  8
0
  6
Continuous
 62
     7
370
    50
100
AcDbLine
 10
399.4028887231
 20
174.1696934512
 30
0.0
 11
396.4682818808
 21
171.304849868
 31
0.0
  0
ARC
  5
BD
330
1F
100
AcDbEntity
  8
0
  6
Continuous
 62
     7
370
    50
100
AcDbCircle
 10
394.9742443948
 20
172.9180949501
 30
0.0
 40
2.198796876610996
100
AcDbArc
 50
269.0084152401
 51
312.8029856879
  0
LINE
  5
BE
330
1F
100
AcDbEntity
  8
0
  6
Continuous
 62
     7
370
    50
100
AcDbLine
 10
27.1987186466
 20
170.7196273484
 30
0.0
 11
394.9361929946
 21
170.7196273484
 31
0.0
  0
ARC
  5
BF
330
1F
100
AcDbEntity
  8
0
  6
Continuous
 62
     7
370
    50
100
AcDbCircle
 10
27.1606672463
 20
172.9180949501
 30
0.0
 40
2.198796876611193
100
AcDbArc
 50
227.1970143121
 51
270.9915847599
  0
LINE
  5
C0
330
1F
100
AcDbEntity
  8
0
  6
Continuous
 62
     7
370
    50
100
AcDbLine
 10
22.732022918
 20
174.1696934512
 30
0.0
 11
25.6666297603
 21
171.304849868
 31
0.0
  0
ARC
  5
C1
330
1F
100
AcDbEntity
  8
0
  6
Continuous
 62
     7
370
    50
100
AcDbCircle
 10
400.3717798366
 20
130.6512200248
 30
0.0
 40
3.248346412401268
100
AcDbArc
 50
178.8566664699
 51
204.5451725464
  0
LINE
  5
C2
330
1F
100
AcDbEntity
  8
0
  6
Continuous
 62
     7
370
    50
100
AcDbLine
 10
397.1240801476
 20
130.716036263
 30
0.0
 11
397.1240801476
 21
169.2412328211
 31
0.0
  0
ARC
  5
C3
330
1F
100
AcDbEntity
  8
0
  6
Continuous
 62
     7
370
    50
100
AcDbCircle
 10
400.3717798366
 20
169.3060490593
 30
0.0
 40
3.248346412399631
100
AcDbArc
 50
155.4548274536
 51
181.1433335301
  0
LINE
  5
C4
330
1F
100
AcDbEntity
  8
0
  6
Continuous
 62
     7
370
    50
100
AcDbLine
 10
397.4169733664
 20
170.6554463835
 30
0.0
 11
398.9023923111
 21
173.6262842729
 31
0.0
  0
LINE
  5
C5
330
1F
100
AcDbEntity
  8
0
  6
Continuous
 62
     7
370
    50
100
AcDbLine
 10
398.8582138498
 20
126.4193417339
 30
0.0
 11
397.4169733664
 21
129.3018227006
 31
0.0
  0
ARC
  5
C6
330
1F
100
AcDbEntity
  8
0
  6
Continuous
 62
     7
370
    50
100
AcDbCircle
 10
21.7631318045
 20
169.3060490593
 30
0.0
 40
3.248346412400112
100
AcDbArc
 50
358.8566664699
 51
24.5451725464
  0
LINE
  5
C7
330
1F
100
AcDbEntity
  8
0
  6
Continuous
 62
     7
370
    50
100
AcDbLine
 10
25.0108314935
 20
130.716036263
 30
0.0
 11
25.0108314935
 21
169.2412328211
 31
0.0
  0
ARC
  5
C8
330
1F
100
AcDbEntity
  8
0
  6
Continuous
 62
     7
370
    50
100
AcDbCircle
 10
21.7631318045
 20
130.6512200248
 30
0.0
 40
3.248346412400845
100
AcDbArc
 50
335.4548274536
 51
1.1433335301
  0
LINE
  5
C9
330
1F
100
AcDbEntity
  8
0
  6
Continuous
 62
     7
370
    50
100
AcDbLine
 10
23.2766977913
 20
126.4193417339
 30
0.0
 11
24.7179382747
 21
129.3018227006
 31
0.0
  0
LINE
  5
CA
330
1F
100
AcDbEntity
  8
0
  6
Continuous
 62
     7
370
    50
100
AcDbLine
 10
24.7179382747
 20
170.6554463835
 30
0.0
 11
23.23251933
 21
173.6262842729
 31
0.0
  0
LINE
  5
CB
330
1F
100
AcDbEntity
  8
0
  6
Continuous
 62
     8
370
    50
100
AcDbLine
 10
23.23251933
 20
173.6262842729
 30
0.0
 11
23.23251933
 21
126.3586916773
 31
0.0
  0
LINE
  5
CC
330
1F
100
AcDbEntity
  8
0
  6
Continuous
 62
     8
370
    50
100
AcDbLine
 10
398.9023923111
 20
173.6262842729
 30
0.0
 11
398.9023923111
 21
126.3586916773
 31
0.0
  0
LINE
  5
CD
330
1F
100
AcDbEntity
  8
0
  6
Continuous
 62
     7
370
    50
100
AcDbLine
 10
-3.9325441794
 20
272.8646218306
 30
0.0
 11
-3.8741790855
 21
272.8646218306
 31
0.0
  0
LINE
  5
CE
330
1F
100
AcDbEntity
  8
0
  6
Continuous
 62
     7
370
    50
100
AcDbLine
 10
426.0090907266
 20
272.8646218306
 30
0.0
 11
426.0674558206
 21
272.8646218306
 31
0.0
  0
LINE
  5
CF
330
1F
100
AcDbEntity
  8
0
  6
Continuous
 62
     7
370
    50
100
AcDbLine
 10
11.0674558206
 20
268.7008824844
 30
0.0
 11
26.5674558205
 21
268.7008824844
 31
0.0
  0
LINE
  5
D0
330
1F
100
AcDbEntity
  8
0
  6
Continuous
 62
     7
370
    50
100
AcDbLine
 10
395.5674558206
 20
268.7008824844
 30
0.0
 11
411.0674558206
 21
268.7008824844
 31
0.0
  0
LINE
  5
D1
330
1F
100
AcDbEntity
  8
0
  6
Continuous
 62
     7
370
    50
100
AcDbLine
 10
411.0674558206
 20
271.3442611654
 30
0.0
 11
411.0674558206
 21
268.7008824844
 31
0.0
  0
LINE
  5
D2
330
1F
100
AcDbEntity
  8
0
  6
Continuous
 62
     7
370
    50
100
AcDbLine
 10
11.0674558206
 20
271.3442611654
 30
0.0
 11
11.0674558206
 21
268.7008824844
 31
0.0
  0
LINE
  5
D3
330
1F
100
AcDbEntity
  8
0
  6
Continuous
 62
     7
370
    50
100
AcDbLine
 10
-3.9325441794
 20
280.8442611654
 30
0.0
 11
426.0674558206
 21
280.8442611654
 31
0.0
  0
LINE
  5
D4
330
1F
100
AcDbEntity
  8
0
  6
Continuous
 62
     7
370
    50
100
AcDbLine
 10
426.0674558206
 20
280.8442611654
 30
0.0
 11
426.0674558206
 21
273.3442611654
 31
0.0
  0
ARC
  5
D5
330
1F
100
AcDbEntity
  8
0
  6
Continuous
 62
     7
370
    50
100
AcDbCircle
 10
424.0674558206
 20
273.3442611654
 30
0.0
 40
2.0
100
AcDbArc
 50
270.0
 51
0.0
  0
LINE
  5
D6
330
1F
100
AcDbEntity
  8
0
  6
Continuous
 62
     7
370
    50
100
AcDbLine
 10
-1.9325441794
 20
271.3442611654
 30
0.0
 11
424.0674558206
 21
271.3442611654
 31
0.0
  0
ARC
  5
D7
330
1F
100
AcDbEntity
  8
0
  6
Continuous
 62
     7
370
    50
100
AcDbCircle
 10
-1.9325441794
 20
273.3442611654
 30
0.0
 40
2.000000000000002
100
AcDbArc
 50
180.0
 51
270.0
  0
LINE
  5
D8
330
1F
100
AcDbEntity
  8
0
  6
Continuous
 62
     7
370
    50
100
AcDbLine
 10
-3.9325441794
 20
280.8442611654
 30
0.0
 11
-3.9325441794
 21
273.3442611654
 31
0.0
  0
LINE
  5
D9
330
1F
100
AcDbEntity
  8
0
  6
Continuous
 62
     7
370
    50
100
AcDbLine
 10
426.0674558206
 20
280.8442611654
 30
0.0
 11
426.0674558206
 21
283.3442611654
 31
0.0
  0
LINE
  5
DA
330
1F
100
AcDbEntity
  8
0
  6
Continuous
 62
     7
370
    50
100
AcDbLine
 10
-3.9325441794
 20
280.8442611654
 30
0.0
 11
-3.9325441794
 21
283.3442611654
 31
0.0
  0
LINE
  5
DB
330
1F
100
AcDbEntity
  8
0
  6
Continuous
 62
     7
370
    50
100
AcDbLine
 10
-3.9325441794
 20
283.3442611654
 30
0.0
 11
426.0674558206
 21
283.3442611654
 31
0.0
  0
LINE
  5
DC
330
1F
100
AcDbEntity
  8
0
  6
Continuous
 62
     7
370
    50
100
AcDbLine
 10
-28.4325441794
 20
283.3442611654
 30
0.0
 11
-6.4325441794
 21
283.3442611654
 31
0.0
  0
LINE
  5
DD
330
1F
100
AcDbEntity
  8
0
  6
Continuous
 62
     7
370
    50
100
AcDbLine
 10
-6.4325441794
 20
281.8442611654
 30
0.0
 11
-6.4325441794
 21
283.3442611654
 31
0.0
  0
LINE
  5
DE
330
1F
100
AcDbEntity
  8
0
  6
Continuous
 62
     7
370
    50
100
AcDbLine
 10
-28.4325441794
 20
281.8442611654
 30
0.0
 11
-28.4325441794
 21
283.3442611654
 31
0.0
  0
LINE
  5
DF
330
1F
100
AcDbEntity
  8
0
  6
Continuous
 62
     7
370
    50
100
AcDbLine
 10
-28.4325441794
 20
281.8442611654
 30
0.0
 11
-6.4325441794
 21
281.8442611654
 31
0.0
  0
LINE
  5
E0
330
1F
100
AcDbEntity
  8
0
  6
Continuous
 62
     7
370
    50
100
AcDbLine
 10
-30.4325441794
 20
283.3442611654
 30
0.0
 11
-28.4325441794
 21
283.3442611654
 31
0.0
  0
LINE
  5
E1
330
1F
100
AcDbEntity
  8
0
  6
Continuous
 62
     7
370
    50
100
AcDbLine
 10
-30.4325441794
 20
281.8442611654
 30
0.0
 11
-30.4325441794
 21
283.3442611654
 31
0.0
  0
LINE
  5
E2
330
1F
100
AcDbEntity
  8
0
  6
Continuous
 62
     7
370
    50
100
AcDbLine
 10
-30.4325441794
 20
281.8442611654
 30
0.0
 11
-28.4325441794
 21
281.8442611654
 31
0.0
  0
LINE
  5
E3
330
1F
100
AcDbEntity
  8
0
  6
Continuous
 62
     7
370
    50
100
AcDbLine
 10
-6.4325441794
 20
283.3442611654
 30
0.0
 11
-4.4325441794
 21
283.3442611654
 31
0.0
  0
LINE
  5
E4
330
1F
100
AcDbEntity
  8
0
  6
Continuous
 62
     7
370
    50
100
AcDbLine
 10
-4.4325441794
 20
281.8442611654
 30
0.0
 11
-4.4325441794
 21
283.3442611654
 31
0.0
  0
LINE
  5
E5
330
1F
100
AcDbEntity
  8
0
  6
Continuous
 62
     7
370
    50
100
AcDbLine
 10
-6.4325441794
 20
281.8442611654
 30
0.0
 11
-4.4325441794
 21
281.8442611654
 31
0.0
  0
LINE
  5
E6
330
1F
100
AcDbEntity
  8
0
  6
Continuous
 62
     7
370
    50
100
AcDbLine
 10
426.5674558206
 20
281.8442611654
 30
0.0
 11
426.5674558206
 21
283.3442611654
 31
0.0
  0
LINE
  5
E7
330
1F
100
AcDbEntity
  8
0
  6
Continuous
 62
     7
370
    50
100
AcDbLine
 10
428.5674558206
 20
281.8442611654
 30
0.0
 11
428.5674558206
 21
283.3442611654
 31
0.0
  0
LINE
  5
E8
330
1F
100
AcDbEntity
  8
0
  6
Continuous
 62
     7
370
    50
100
AcDbLine
 10
428.5674558206
 20
283.3442611654
 30
0.0
 11
426.5674558206
 21
283.3442611654
 31
0.0
  0
LINE
  5
E9
330
1F
100
AcDbEntity
  8
0
  6
Continuous
 62
     7
370
    50
100
AcDbLine
 10
428.5674558206
 20
281.8442611654
 30
0.0
 11
426.5674558206
 21
281.8442611654
 31
0.0
  0
LINE
  5
EA
330
1F
100
AcDbEntity
  8
0
  6
Continuous
 62
     7
370
    50
100
AcDbLine
 10
450.5674558206
 20
281.8442611654
 30
0.0
 11
450.5674558206
 21
283.3442611654
 31
0.0
  0
LINE
  5
EB
330
1F
100
AcDbEntity
  8
0
  6
Continuous
 62
     7
370
    50
100
AcDbLine
 10
450.5674558206
 20
283.3442611654
 30
0.0
 11
428.5674558206
 21
283.3442611654
 31
0.0
  0
LINE
  5
EC
330
1F
100
AcDbEntity
  8
0
  6
Continuous
 62
     7
370
    50
100
AcDbLine
 10
450.5674558206
 20
281.8442611654
 30
0.0
 11
428.5674558206
 21
281.8442611654
 31
0.0
  0
LINE
  5
ED
330
1F
100
AcDbEntity
  8
0
  6
Continuous
 62
     7
370
    50
100
AcDbLine
 10
452.5674558206
 20
281.8442611654
 30
0.0
 11
452.5674558206
 21
283.3442611654
 31
0.0
  0
LINE
  5
EE
330
1F
100
AcDbEntity
  8
0
  6
Continuous
 62
     7
370
    50
100
AcDbLine
 10
452.5674558206
 20
283.3442611654
 30
0.0
 11
450.5674558206
 21
283.3442611654
 31
0.0
  0
LINE
  5
EF
330
1F
100
AcDbEntity
  8
0
  6
Continuous
 62
     7
370
    50
100
AcDbLine
 10
452.5674558206
 20
281.8442611654
 30
0.0
 11
450.5674558206
 21
281.8442611654
 31
0.0
  0
LINE
  5
F0
330
1F
100
AcDbEntity
  8
0
  6
Continuous
 62
     7
370
    50
100
AcDbLine
 10
-3.9325441794
 20
283.3442611654
 30
0.0
 11
-4.4325441794
 21
283.3442611654
 31
0.0
  0
LINE
  5
F1
330
1F
100
AcDbEntity
  8
0
  6
Continuous
 62
     7
370
    50
100
AcDbLine
 10
-3.9325441794
 20
281.8442611654
 30
0.0
 11
-4.4325441794
 21
281.8442611654
 31
0.0
  0
LINE
  5
F2
330
1F
100
AcDbEntity
  8
0
  6
Continuous
 62
     7
370
    50
100
AcDbLine
 10
426.0674558206
 20
283.3442611654
 30
0.0
 11
426.5674558206
 21
283.3442611654
 31
0.0
  0
LINE
  5
F3
330
1F
100
AcDbEntity
  8
0
  6
Continuous
 62
     7
370
    50
100
AcDbLine
 10
426.0674558206
 20
281.8442611654
 30
0.0
 11
426.5674558206
 21
281.8442611654
 31
0.0
  0
LINE
  5
F4
330
1F
100
AcDbEntity
  8
0
  6
Continuous
 62
     7
370
    50
100
AcDbLine
 10
395.5674558206
 20
271.3442611654
 30
0.0
 11
395.5674558206
 21
263.3442611654
 31
0.0
  0
ARC
  5
F5
330
1F
100
AcDbEntity
  8
0
  6
Continuous
 62
     7
370
    50
100
AcDbCircle
 10
393.5674558206
 20
263.3442611654
 30
0.0
 40
2.0
100
AcDbArc
 50
270.0
 51
0.0
  0
LINE
  5
F6
330
1F
100
AcDbEntity
  8
0
  6
Continuous
 62
     7
370
    50
100
AcDbLine
 10
393.5674558206
 20
261.3442611654
 30
0.0
 11
390.5674558206
 21
261.3442611654
 31
0.0
  0
ARC
  5
F7
330
1F
100
AcDbEntity
  8
0
  6
Continuous
 62
     7
370
    50
100
AcDbCircle
 10
390.5674558206
 20
258.3442611654
 30
0.0
 40
3.0
100
AcDbArc
 50
90.0
 51
255.5224878141
  0
ARC
  5
F8
330
1F
100
AcDbEntity
  8
0
  6
Continuous
 62
     7
370
    50
100
AcDbCircle
 10
389.5674558206
 20
254.4712778192
 30
0.0
 40
1.000000000000004
100
AcDbArc
 50
0.0
 51
75.5224878141
  0
LINE
  5
F9
330
1F
100
AcDbEntity
  8
0
  6
Continuous
 62
     7
370
    50
100
AcDbLine
 10
390.5674558206
 20
254.4712778192
 30
0.0
 11
390.5674558206
 21
249.3442611654
 31
0.0
  0
ARC
  5
FA
330
1F
100
AcDbEntity
  8
0
  6
Continuous
 62
     7
370
    50
100
AcDbCircle
 10
388.5674558206
 20
249.3442611654
 30
0.0
 40
2.000000000000028
100
AcDbArc
 50
270.0
 51
0.0
  0
LINE
  5
FB
330
1F
100
AcDbEntity
  8
0
  6
Continuous
 62
     7
370
    50
100
AcDbLine
 10
388.5674558206
 20
247.3442611654
 30
0.0
 11
383.5674558206
 21
247.3442611654
 31
0.0
  0
ARC
  5
FC
330
1F
100
AcDbEntity
  8
0
  6
Continuous
 62
     7
370
    50
100
AcDbCircle
 10
383.5674558206
 20
249.3442611654
 30
0.0
 40
2.000000000000028
100
AcDbArc
 50
180.0
 51
270.0
  0
LINE
  5
FD
330
1F
100
AcDbEntity
  8
0
  6
Continuous
 62
     7
370
    50
100
AcDbLine
 10
381.5674558206
 20
249.3442611654
 30
0.0
 11
381.5674558206
 21
254.4712778192
 31
0.0
  0
ARC
  5
FE
330
1F
100
AcDbEntity
  8
0
  6
Continuous
 62
     7
370
    50
100
AcDbCircle
 10
382.5674558206
 20
254.4712778192
 30
0.0
 40
1.0
100
AcDbArc
 50
104.4775121859
 51
180.0
  0
ARC
  5
FF
330
1F
100
AcDbEntity
  8
0
  6
Continuous
 62
     7
370
    50
100
AcDbCircle
 10
381.5674558206
 20
258.3442611654
 30
0.0
 40
3.0
100
AcDbArc
 50
284.4775121859
 51
90.0
  0
LINE
  5
100
330
1F
100
AcDbEntity
  8
0
  6
Continuous
 62
     7
370
    50
100
AcDbLine
 10
381.5674558206
 20
261.3442611654
 30
0.0
 11
376.5674558206
 21
261.3442611654
 31
0.0
  0
ARC
  5
101
330
1F
100
AcDbEntity
  8
0
  6
Continuous
 62
     7
370
    50
100
AcDbCircle
 10
376.5674558206
 20
258.3442611654
 30
0.0
 40
3.0
100
AcDbArc
 50
90.0
 51
255.5224878141
  0
ARC
  5
102
330
1F
100
AcDbEntity
  8
0
  6
Continuous
 62
     7
370
    50
100
AcDbCircle
 10
375.5674558206
 20
254.4712778192
 30
0.0
 40
1.000000000000004
100
AcDbArc
 50
0.0
 51
75.5224878141
  0
LINE
  5
103
330
1F
100
AcDbEntity
  8
0
  6
Continuous
 62
     7
370
    50
100
AcDbLine
 10
376.5674558206
 20
254.4712778192
 30
0.0
 11
376.5674558206
 21
249.3442611654
 31
0.0
  0
ARC
  5
104
330
1F
100
AcDbEntity
  8
0
  6
Continuous
 62
     7
370
    50
100
AcDbCircle
 10
374.5674558206
 20
249.3442611654
 30
0.0
 40
2.000000000000028
100
AcDbArc
 50
270.0
 51
0.0
  0
LINE
  5
105
330
1F
100
AcDbEntity
  8
0
  6
Continuous
 62
     7
370
    50
100
AcDbLine
 10
374.5674558206
 20
247.3442611654
 30
0.0
 11
369.5674558206
 21
247.3442611654
 31
0.0
  0
ARC
  5
106
330
1F
100
AcDbEntity
  8
0
  6
Continuous
 62
     7
370
    50
100
AcDbCircle
 10
369.5674558206
 20
249.3442611654
 30
0.0
 40
2.000000000000028
100
AcDbArc
 50
180.0
 51
270.0
  0
LINE
  5
107
330
1F
100
AcDbEntity
  8
0
  6
Continuous
 62
     7
370
    50
100
AcDbLine
 10
367.5674558206
 20
249.3442611654
 30
0.0
 11
367.5674558206
 21
254.4712778192
 31
0.0
  0
ARC
  5
108
330
1F
100
AcDbEntity
  8
0
  6
Continuous
 62
     7
370
    50
100
AcDbCircle
 10
368.5674558206
 20
254.4712778192
 30
0.0
 40
1.000000000000004
100
AcDbArc
 50
104.4775121859
 51
180.0
  0
ARC
  5
109
330
1F
100
AcDbEntity
  8
0
  6
Continuous
 62
     7
370
    50
100
AcDbCircle
 10
367.5674558206
 20
258.3442611654
 30
0.0
 40
3.0
100
AcDbArc
 50
284.4775121859
 51
90.0
  0
LINE
  5
10A
330
1F
100
AcDbEntity
  8
0
  6
Continuous
 62
     7
370
    50
100
AcDbLine
 10
367.5674558206
 20
261.3442611654
 30
0.0
 11
362.5674558206
 21
261.3442611654
 31
0.0
  0
ARC
  5
10B
330
1F
100
AcDbEntity
  8
0
  6
Continuous
 62
     7
370
    50
100
AcDbCircle
 10
362.5674558206
 20
258.3442611654
 30
0.0
 40
3.0
100
AcDbArc
 50
90.0
 51
255.5224878141
  0
ARC
  5
10C
330
1F
100
AcDbEntity
  8
0
  6
Continuous
 62
     7
370
    50
100
AcDbCircle
 10
361.5674558206
 20
254.4712778192
 30
0.0
 40
1.0
100
AcDbArc
 50
0.0
 51
75.5224878141
  0
LINE
  5
10D
330
1F
100
AcDbEntity
  8
0
  6
Continuous
 62
     7
370
    50
100
AcDbLine
 10
362.5674558206
 20
254.4712778192
 30
0.0
 11
362.5674558206
 21
249.3442611654
 31
0.0
  0
ARC
  5
10E
330
1F
100
AcDbEntity
  8
0
  6
Continuous
 62
     7
370
    50
100
AcDbCircle
 10
360.5674558206
 20
249.3442611654
 30
0.0
 40
2.000000000000028
100
AcDbArc
 50
270.0
 51
0.0
  0
LINE
  5
10F
330
1F
100
AcDbEntity
  8
0
  6
Continuous
 62
     7
370
    50
100
AcDbLine
 10
360.5674558206
 20
247.3442611654
 30
0.0
 11
355.5674558206
 21
247.3442611654
 31
0.0
  0
ARC
  5
110
330
1F
100
AcDbEntity
  8
0
  6
Continuous
 62
     7
370
    50
100
AcDbCircle
 10
355.5674558206
 20
249.3442611654
 30
0.0
 40
2.000000000000028
100
AcDbArc
 50
180.0
 51
270.0
  0
LINE
  5
111
330
1F
100
AcDbEntity
  8
0
  6
Continuous
 62
     7
370
    50
100
AcDbLine
 10
353.5674558206
 20
249.3442611654
 30
0.0
 11
353.5674558206
 21
254.4712778192
 31
0.0
  0
ARC
  5
112
330
1F
100
AcDbEntity
  8
0
  6
Continuous
 62
     7
370
    50
100
AcDbCircle
 10
354.5674558206
 20
254.4712778192
 30
0.0
 40
1.000000000000004
100
AcDbArc
 50
104.4775121859
 51
180.0
  0
ARC
  5
113
330
1F
100
AcDbEntity
  8
0
  6
Continuous
 62
     7
370
    50
100
AcDbCircle
 10
353.5674558206
 20
258.3442611654
 30
0.0
 40
3.0
100
AcDbArc
 50
284.4775121859
 51
90.0
  0
LINE
  5
114
330
1F
100
AcDbEntity
  8
0
  6
Continuous
 62
     7
370
    50
100
AcDbLine
 10
353.5674558206
 20
261.3442611654
 30
0.0
 11
348.5674558206
 21
261.3442611654
 31
0.0
  0
ARC
  5
115
330
1F
100
AcDbEntity
  8
0
  6
Continuous
 62
     7
370
    50
100
AcDbCircle
 10
348.5674558206
 20
258.3442611654
 30
0.0
 40
3.0
100
AcDbArc
 50
90.0
 51
255.5224878141
  0
ARC
  5
116
330
1F
100
AcDbEntity
  8
0
  6
Continuous
 62
     7
370
    50
100
AcDbCircle
 10
347.5674558206
 20
254.4712778192
 30
0.0
 40
1.000000000000004
100
AcDbArc
 50
0.0
 51
75.5224878141
  0
LINE
  5
117
330
1F
100
AcDbEntity
  8
0
  6
Continuous
 62
     7
370
    50
100
AcDbLine
 10
348.5674558206
 20
254.4712778192
 30
0.0
 11
348.5674558206
 21
249.3442611654
 31
0.0
  0
ARC
  5
118
330
1F
100
AcDbEntity
  8
0
  6
Continuous
 62
     7
370
    50
100
AcDbCircle
 10
346.5674558206
 20
249.3442611654
 30
0.0
 40
2.000000000000028
100
AcDbArc
 50
270.0
 51
0.0
  0
LINE
  5
119
330
1F
100
AcDbEntity
  8
0
  6
Continuous
 62
     7
370
    50
100
AcDbLine
 10
346.5674558206
 20
247.3442611654
 30
0.0
 11
341.5674558206
 21
247.3442611654
 31
0.0
  0
ARC
  5
11A
330
1F
100
AcDbEntity
  8
0
  6
Continuous
 62
     7
370
    50
100
AcDbCircle
 10
341.5674558206
 20
249.3442611654
 30
0.0
 40
2.000000000000028
100
AcDbArc
 50
180.0
 51
270.0
  0
LINE
  5
11B
330
1F
100
AcDbEntity
  8
0
  6
Continuous
 62
     7
370
    50
100
AcDbLine
 10
339.5674558206
 20
249.3442611654
 30
0.0
 11
339.5674558206
 21
254.4712778192
 31
0.0
  0
ARC
  5
11C
330
1F
100
AcDbEntity
  8
0
  6
Continuous
 62
     7
370
    50
100
AcDbCircle
 10
340.5674558206
 20
254.4712778192
 30
0.0
 40
1.0
100
AcDbArc
 50
104.4775121859
 51
180.0
  0
ARC
  5
11D
330
1F
100
AcDbEntity
  8
0
  6
Continuous
 62
     7
370
    50
100
AcDbCircle
 10
339.5674558206
 20
258.3442611654
 30
0.0
 40
3.0
100
AcDbArc
 50
284.4775121859
 51
90.0
  0
LINE
  5
11E
330
1F
100
AcDbEntity
  8
0
  6
Continuous
 62
     7
370
    50
100
AcDbLine
 10
339.5674558206
 20
261.3442611654
 30
0.0
 11
334.5674558206
 21
261.3442611654
 31
0.0
  0
ARC
  5
11F
330
1F
100
AcDbEntity
  8
0
  6
Continuous
 62
     7
370
    50
100
AcDbCircle
 10
334.5674558206
 20
258.3442611654
 30
0.0
 40
3.0
100
AcDbArc
 50
90.0
 51
255.5224878141
  0
ARC
  5
120
330
1F
100
AcDbEntity
  8
0
  6
Continuous
 62
     7
370
    50
100
AcDbCircle
 10
333.5674558206
 20
254.4712778192
 30
0.0
 40
1.000000000000018
100
AcDbArc
 50
0.0
 51
75.5224878141
  0
LINE
  5
121
330
1F
100
AcDbEntity
  8
0
  6
Continuous
 62
     7
370
    50
100
AcDbLine
 10
334.5674558206
 20
254.4712778192
 30
0.0
 11
334.5674558206
 21
249.3442611654
 31
0.0
  0
ARC
  5
122
330
1F
100
AcDbEntity
  8
0
  6
Continuous
 62
     7
370
    50
100
AcDbCircle
 10
332.5674558206
 20
249.3442611654
 30
0.0
 40
2.000000000000028
100
AcDbArc
 50
270.0
 51
0.0
  0
LINE
  5
123
330
1F
100
AcDbEntity
  8
0
  6
Continuous
 62
     7
370
    50
100
AcDbLine
 10
332.5674558206
 20
247.3442611654
 30
0.0
 11
327.5674558206
 21
247.3442611654
 31
0.0
  0
ARC
  5
124
330
1F
100
AcDbEntity
  8
0
  6
Continuous
 62
     7
370
    50
100
AcDbCircle
 10
327.5674558206
 20
249.3442611654
 30
0.0
 40
2.000000000000028
100
AcDbArc
 50
180.0
 51
270.0
  0
LINE
  5
125
330
1F
100
AcDbEntity
  8
0
  6
Continuous
 62
     7
370
    50
100
AcDbLine
 10
325.5674558206
 20
249.3442611654
 30
0.0
 11
325.5674558206
 21
254.4712778192
 31
0.0
  0
ARC
  5
126
330
1F
100
AcDbEntity
  8
0
  6
Continuous
 62
     7
370
    50
100
AcDbCircle
 10
326.5674558206
 20
254.4712778192
 30
0.0
 40
1.0
100
AcDbArc
 50
104.4775121859
 51
180.0
  0
ARC
  5
127
330
1F
100
AcDbEntity
  8
0
  6
Continuous
 62
     7
370
    50
100
AcDbCircle
 10
325.5674558206
 20
258.3442611654
 30
0.0
 40
3.0
100
AcDbArc
 50
284.4775121859
 51
90.0
  0
LINE
  5
128
330
1F
100
AcDbEntity
  8
0
  6
Continuous
 62
     7
370
    50
100
AcDbLine
 10
325.5674558206
 20
261.3442611654
 30
0.0
 11
320.5674558206
 21
261.3442611654
 31
0.0
  0
ARC
  5
129
330
1F
100
AcDbEntity
  8
0
  6
Continuous
 62
     7
370
    50
100
AcDbCircle
 10
320.5674558206
 20
258.3442611654
 30
0.0
 40
3.0
100
AcDbArc
 50
90.0
 51
255.5224878141
  0
ARC
  5
12A
330
1F
100
AcDbEntity
  8
0
  6
Continuous
 62
     7
370
    50
100
AcDbCircle
 10
319.5674558206
 20
254.4712778192
 30
0.0
 40
1.000000000000018
100
AcDbArc
 50
0.0
 51
75.5224878141
  0
LINE
  5
12B
330
1F
100
AcDbEntity
  8
0
  6
Continuous
 62
     7
370
    50
100
AcDbLine
 10
320.5674558206
 20
254.4712778192
 30
0.0
 11
320.5674558206
 21
249.3442611654
 31
0.0
  0
ARC
  5
12C
330
1F
100
AcDbEntity
  8
0
  6
Continuous
 62
     7
370
    50
100
AcDbCircle
 10
318.5674558206
 20
249.3442611654
 30
0.0
 40
2.000000000000028
100
AcDbArc
 50
270.0
 51
0.0
  0
LINE
  5
12D
330
1F
100
AcDbEntity
  8
0
  6
Continuous
 62
     7
370
    50
100
AcDbLine
 10
318.5674558206
 20
247.3442611654
 30
0.0
 11
313.5674558206
 21
247.3442611654
 31
0.0
  0
ARC
  5
12E
330
1F
100
AcDbEntity
  8
0
  6
Continuous
 62
     7
370
    50
100
AcDbCircle
 10
313.5674558206
 20
249.3442611654
 30
0.0
 40
2.000000000000028
100
AcDbArc
 50
180.0
 51
270.0
  0
LINE
  5
12F
330
1F
100
AcDbEntity
  8
0
  6
Continuous
 62
     7
370
    50
100
AcDbLine
 10
311.5674558206
 20
249.3442611654
 30
0.0
 11
311.5674558206
 21
254.4712778192
 31
0.0
  0
ARC
  5
130
330
1F
100
AcDbEntity
  8
0
  6
Continuous
 62
     7
370
    50
100
AcDbCircle
 10
312.5674558206
 20
254.4712778192
 30
0.0
 40
1.000000000000004
100
AcDbArc
 50
104.4775121859
 51
180.0
  0
ARC
  5
131
330
1F
100
AcDbEntity
  8
0
  6
Continuous
 62
     7
370
    50
100
AcDbCircle
 10
311.5674558206
 20
258.3442611654
 30
0.0
 40
3.0
100
AcDbArc
 50
284.4775121859
 51
90.0
  0
LINE
  5
132
330
1F
100
AcDbEntity
  8
0
  6
Continuous
 62
     7
370
    50
100
AcDbLine
 10
311.5674558206
 20
261.3442611654
 30
0.0
 11
306.5674558206
 21
261.3442611654
 31
0.0
  0
ARC
  5
133
330
1F
100
AcDbEntity
  8
0
  6
Continuous
 62
     7
370
    50
100
AcDbCircle
 10
306.5674558206
 20
258.3442611654
 30
0.0
 40
3.0
100
AcDbArc
 50
90.0
 51
255.5224878141
  0
ARC
  5
134
330
1F
100
AcDbEntity
  8
0
  6
Continuous
 62
     7
370
    50
100
AcDbCircle
 10
305.5674558206
 20
254.4712778192
 30
0.0
 40
1.000000000000004
100
AcDbArc
 50
0.0
 51
75.5224878141
  0
LINE
  5
135
330
1F
100
AcDbEntity
  8
0
  6
Continuous
 62
     7
370
    50
100
AcDbLine
 10
306.5674558206
 20
254.4712778192
 30
0.0
 11
306.5674558206
 21
249.3442611654
 31
0.0
  0
ARC
  5
136
330
1F
100
AcDbEntity
  8
0
  6
Continuous
 62
     7
370
    50
100
AcDbCircle
 10
304.5674558206
 20
249.3442611654
 30
0.0
 40
2.000000000000028
100
AcDbArc
 50
270.0
 51
0.0
  0
LINE
  5
137
330
1F
100
AcDbEntity
  8
0
  6
Continuous
 62
     7
370
    50
100
AcDbLine
 10
304.5674558206
 20
247.3442611654
 30
0.0
 11
299.5674558206
 21
247.3442611654
 31
0.0
  0
ARC
  5
138
330
1F
100
AcDbEntity
  8
0
  6
Continuous
 62
     7
370
    50
100
AcDbCircle
 10
299.5674558206
 20
249.3442611654
 30
0.0
 40
2.000000000000028
100
AcDbArc
 50
180.0
 51
270.0
  0
LINE
  5
139
330
1F
100
AcDbEntity
  8
0
  6
Continuous
 62
     7
370
    50
100
AcDbLine
 10
297.5674558206
 20
249.3442611654
 30
0.0
 11
297.5674558206
 21
254.4712778192
 31
0.0
  0
ARC
  5
13A
330
1F
100
AcDbEntity
  8
0
  6
Continuous
 62
     7
370
    50
100
AcDbCircle
 10
298.5674558206
 20
254.4712778192
 30
0.0
 40
1.000000000000004
100
AcDbArc
 50
104.4775121859
 51
180.0
  0
ARC
  5
13B
330
1F
100
AcDbEntity
  8
0
  6
Continuous
 62
     7
370
    50
100
AcDbCircle
 10
297.5674558206
 20
258.3442611654
 30
0.0
 40
3.0
100
AcDbArc
 50
284.4775121859
 51
90.0
  0
LINE
  5
13C
330
1F
100
AcDbEntity
  8
0
  6
Continuous
 62
     7
370
    50
100
AcDbLine
 10
297.5674558206
 20
261.3442611654
 30
0.0
 11
292.5674558206
 21
261.3442611654
 31
0.0
  0
ARC
  5
13D
330
1F
100
AcDbEntity
  8
0
  6
Continuous
 62
     7
370
    50
100
AcDbCircle
 10
292.5674558206
 20
258.3442611654
 30
0.0
 40
3.0
100
AcDbArc
 50
90.0
 51
255.5224878141
  0
ARC
  5
13E
330
1F
100
AcDbEntity
  8
0
  6
Continuous
 62
     7
370
    50
100
AcDbCircle
 10
291.5674558206
 20
254.4712778192
 30
0.0
 40
1.000000000000004
100
AcDbArc
 50
0.0
 51
75.5224878141
  0
LINE
  5
13F
330
1F
100
AcDbEntity
  8
0
  6
Continuous
 62
     7
370
    50
100
AcDbLine
 10
292.5674558206
 20
254.4712778192
 30
0.0
 11
292.5674558206
 21
249.3442611654
 31
0.0
  0
ARC
  5
140
330
1F
100
AcDbEntity
  8
0
  6
Continuous
 62
     7
370
    50
100
AcDbCircle
 10
290.5674558206
 20
249.3442611654
 30
0.0
 40
2.000000000000028
100
AcDbArc
 50
270.0
 51
0.0
  0
LINE
  5
141
330
1F
100
AcDbEntity
  8
0
  6
Continuous
 62
     7
370
    50
100
AcDbLine
 10
290.5674558206
 20
247.3442611654
 30
0.0
 11
285.5674558206
 21
247.3442611654
 31
0.0
  0
ARC
  5
142
330
1F
100
AcDbEntity
  8
0
  6
Continuous
 62
     7
370
    50
100
AcDbCircle
 10
285.5674558206
 20
249.3442611654
 30
0.0
 40
2.000000000000028
100
AcDbArc
 50
180.0
 51
270.0
  0
LINE
  5
143
330
1F
100
AcDbEntity
  8
0
  6
Continuous
 62
     7
370
    50
100
AcDbLine
 10
283.5674558206
 20
249.3442611654
 30
0.0
 11
283.5674558206
 21
254.4712778192
 31
0.0
  0
ARC
  5
144
330
1F
100
AcDbEntity
  8
0
  6
Continuous
 62
     7
370
    50
100
AcDbCircle
 10
284.5674558206
 20
254.4712778192
 30
0.0
 40
1.000000000000004
100
AcDbArc
 50
104.4775121859
 51
180.0
  0
ARC
  5
145
330
1F
100
AcDbEntity
  8
0
  6
Continuous
 62
     7
370
    50
100
AcDbCircle
 10
283.5674558206
 20
258.3442611654
 30
0.0
 40
3.0
100
AcDbArc
 50
284.4775121859
 51
90.0
  0
LINE
  5
146
330
1F
100
AcDbEntity
  8
0
  6
Continuous
 62
     7
370
    50
100
AcDbLine
 10
283.5674558206
 20
261.3442611654
 30
0.0
 11
278.5674558206
 21
261.3442611654
 31
0.0
  0
ARC
  5
147
330
1F
100
AcDbEntity
  8
0
  6
Continuous
 62
     7
370
    50
100
AcDbCircle
 10
278.5674558206
 20
258.3442611654
 30
0.0
 40
3.0
100
AcDbArc
 50
90.0
 51
255.5224878141
  0
ARC
  5
148
330
1F
100
AcDbEntity
  8
0
  6
Continuous
 62
     7
370
    50
100
AcDbCircle
 10
277.5674558206
 20
254.4712778192
 30
0.0
 40
1.000000000000004
100
AcDbArc
 50
0.0
 51
75.5224878141
  0
LINE
  5
149
330
1F
100
AcDbEntity
  8
0
  6
Continuous
 62
     7
370
    50
100
AcDbLine
 10
278.5674558206
 20
254.4712778192
 30
0.0
 11
278.5674558206
 21
249.3442611654
 31
0.0
  0
ARC
  5
14A
330
1F
100
AcDbEntity
  8
0
  6
Continuous
 62
     7
370
    50
100
AcDbCircle
 10
276.5674558206
 20
249.3442611654
 30
0.0
 40
2.000000000000028
100
AcDbArc
 50
270.0
 51
0.0
  0
LINE
  5
14B
330
1F
100
AcDbEntity
  8
0
  6
Continuous
 62
     7
370
    50
100
AcDbLine
 10
276.5674558206
 20
247.3442611654
 30
0.0
 11
271.5674558206
 21
247.3442611654
 31
0.0
  0
ARC
  5
14C
330
1F
100
AcDbEntity
  8
0
  6
Continuous
 62
     7
370
    50
100
AcDbCircle
 10
271.5674558206
 20
249.3442611654
 30
0.0
 40
2.000000000000028
100
AcDbArc
 50
180.0
 51
270.0
  0
LINE
  5
14D
330
1F
100
AcDbEntity
  8
0
  6
Continuous
 62
     7
370
    50
100
AcDbLine
 10
269.5674558206
 20
249.3442611654
 30
0.0
 11
269.5674558206
 21
254.4712778192
 31
0.0
  0
ARC
  5
14E
330
1F
100
AcDbEntity
  8
0
  6
Continuous
 62
     7
370
    50
100
AcDbCircle
 10
270.5674558206
 20
254.4712778192
 30
0.0
 40
1.0
100
AcDbArc
 50
104.4775121859
 51
180.0
  0
ARC
  5
14F
330
1F
100
AcDbEntity
  8
0
  6
Continuous
 62
     7
370
    50
100
AcDbCircle
 10
269.5674558206
 20
258.3442611654
 30
0.0
 40
3.0
100
AcDbArc
 50
284.4775121859
 51
90.0
  0
LINE
  5
150
330
1F
100
AcDbEntity
  8
0
  6
Continuous
 62
     7
370
    50
100
AcDbLine
 10
269.5674558206
 20
261.3442611654
 30
0.0
 11
264.5674558206
 21
261.3442611654
 31
0.0
  0
ARC
  5
151
330
1F
100
AcDbEntity
  8
0
  6
Continuous
 62
     7
370
    50
100
AcDbCircle
 10
264.5674558206
 20
258.3442611654
 30
0.0
 40
3.0
100
AcDbArc
 50
90.0
 51
255.5224878141
  0
ARC
  5
152
330
1F
100
AcDbEntity
  8
0
  6
Continuous
 62
     7
370
    50
100
AcDbCircle
 10
263.5674558206
 20
254.4712778192
 30
0.0
 40
1.000000000000004
100
AcDbArc
 50
0.0
 51
75.5224878141
  0
LINE
  5
153
330
1F
100
AcDbEntity
  8
0
  6
Continuous
 62
     7
370
    50
100
AcDbLine
 10
264.5674558206
 20
254.4712778192
 30
0.0
 11
264.5674558206
 21
249.3442611654
 31
0.0
  0
ARC
  5
154
330
1F
100
AcDbEntity
  8
0
  6
Continuous
 62
     7
370
    50
100
AcDbCircle
 10
262.5674558206
 20
249.3442611654
 30
0.0
 40
2.000000000000028
100
AcDbArc
 50
270.0
 51
0.0
  0
LINE
  5
155
330
1F
100
AcDbEntity
  8
0
  6
Continuous
 62
     7
370
    50
100
AcDbLine
 10
262.5674558206
 20
247.3442611654
 30
0.0
 11
257.5674558206
 21
247.3442611654
 31
0.0
  0
ARC
  5
156
330
1F
100
AcDbEntity
  8
0
  6
Continuous
 62
     7
370
    50
100
AcDbCircle
 10
257.5674558206
 20
249.3442611654
 30
0.0
 40
2.000000000000028
100
AcDbArc
 50
180.0
 51
270.0
  0
LINE
  5
157
330
1F
100
AcDbEntity
  8
0
  6
Continuous
 62
     7
370
    50
100
AcDbLine
 10
255.5674558206
 20
249.3442611654
 30
0.0
 11
255.5674558206
 21
254.4712778192
 31
0.0
  0
ARC
  5
158
330
1F
100
AcDbEntity
  8
0
  6
Continuous
 62
     7
370
    50
100
AcDbCircle
 10
256.5674558206
 20
254.4712778192
 30
0.0
 40
1.0
100
AcDbArc
 50
104.4775121859
 51
180.0
  0
ARC
  5
159
330
1F
100
AcDbEntity
  8
0
  6
Continuous
 62
     7
370
    50
100
AcDbCircle
 10
255.5674558206
 20
258.3442611654
 30
0.0
 40
3.0
100
AcDbArc
 50
284.4775121859
 51
90.0
  0
LINE
  5
15A
330
1F
100
AcDbEntity
  8
0
  6
Continuous
 62
     7
370
    50
100
AcDbLine
 10
255.5674558206
 20
261.3442611654
 30
0.0
 11
250.5674558206
 21
261.3442611654
 31
0.0
  0
ARC
  5
15B
330
1F
100
AcDbEntity
  8
0
  6
Continuous
 62
     7
370
    50
100
AcDbCircle
 10
250.5674558206
 20
258.3442611654
 30
0.0
 40
3.0
100
AcDbArc
 50
90.0
 51
255.5224878141
  0
ARC
  5
15C
330
1F
100
AcDbEntity
  8
0
  6
Continuous
 62
     7
370
    50
100
AcDbCircle
 10
249.5674558206
 20
254.4712778192
 30
0.0
 40
1.000000000000028
100
AcDbArc
 50
0.0
 51
75.5224878141
  0
LINE
  5
15D
330
1F
100
AcDbEntity
  8
0
  6
Continuous
 62
     7
370
    50
100
AcDbLine
 10
250.5674558206
 20
254.4712778192
 30
0.0
 11
250.5674558206
 21
249.3442611654
 31
0.0
  0
ARC
  5
15E
330
1F
100
AcDbEntity
  8
0
  6
Continuous
 62
     7
370
    50
100
AcDbCircle
 10
248.5674558206
 20
249.3442611654
 30
0.0
 40
2.000000000000028
100
AcDbArc
 50
270.0
 51
0.0
  0
LINE
  5
15F
330
1F
100
AcDbEntity
  8
0
  6
Continuous
 62
     7
370
    50
100
AcDbLine
 10
248.5674558206
 20
247.3442611654
 30
0.0
 11
243.5674558206
 21
247.3442611654
 31
0.0
  0
ARC
  5
160
330
1F
100
AcDbEntity
  8
0
  6
Continuous
 62
     7
370
    50
100
AcDbCircle
 10
243.5674558206
 20
249.3442611654
 30
0.0
 40
2.000000000000028
100
AcDbArc
 50
180.0
 51
270.0
  0
LINE
  5
161
330
1F
100
AcDbEntity
  8
0
  6
Continuous
 62
     7
370
    50
100
AcDbLine
 10
241.5674558206
 20
249.3442611654
 30
0.0
 11
241.5674558206
 21
254.4712778192
 31
0.0
  0
ARC
  5
162
330
1F
100
AcDbEntity
  8
0
  6
Continuous
 62
     7
370
    50
100
AcDbCircle
 10
242.5674558206
 20
254.4712778192
 30
0.0
 40
1.0
100
AcDbArc
 50
104.4775121859
 51
180.0
  0
ARC
  5
163
330
1F
100
AcDbEntity
  8
0
  6
Continuous
 62
     7
370
    50
100
AcDbCircle
 10
241.5674558206
 20
258.3442611654
 30
0.0
 40
3.0
100
AcDbArc
 50
284.4775121859
 51
90.0
  0
LINE
  5
164
330
1F
100
AcDbEntity
  8
0
  6
Continuous
 62
     7
370
    50
100
AcDbLine
 10
241.5674558206
 20
261.3442611654
 30
0.0
 11
236.5674558206
 21
261.3442611654
 31
0.0
  0
ARC
  5
165
330
1F
100
AcDbEntity
  8
0
  6
Continuous
 62
     7
370
    50
100
AcDbCircle
 10
236.5674558206
 20
258.3442611654
 30
0.0
 40
3.0
100
AcDbArc
 50
90.0
 51
255.5224878141
  0
ARC
  5
166
330
1F
100
AcDbEntity
  8
0
  6
Continuous
 62
     7
370
    50
100
AcDbCircle
 10
235.5674558206
 20
254.4712778192
 30
0.0
 40
1.000000000000004
100
AcDbArc
 50
0.0
 51
75.5224878141
  0
LINE
  5
167
330
1F
100
AcDbEntity
  8
0
  6
Continuous
 62
     7
370
    50
100
AcDbLine
 10
236.5674558206
 20
254.4712778192
 30
0.0
 11
236.5674558206
 21
249.3442611654
 31
0.0
  0
ARC
  5
168
330
1F
100
AcDbEntity
  8
0
  6
Continuous
 62
     7
370
    50
100
AcDbCircle
 10
234.5674558206
 20
249.3442611654
 30
0.0
 40
2.000000000000028
100
AcDbArc
 50
270.0
 51
0.0
  0
LINE
  5
169
330
1F
100
AcDbEntity
  8
0
  6
Continuous
 62
     7
370
    50
100
AcDbLine
 10
234.5674558206
 20
247.3442611654
 30
0.0
 11
229.5674558206
 21
247.3442611654
 31
0.0
  0
ARC
  5
16A
330
1F
100
AcDbEntity
  8
0
  6
Continuous
 62
     7
370
    50
100
AcDbCircle
 10
229.5674558206
 20
249.3442611654
 30
0.0
 40
2.000000000000028
100
AcDbArc
 50
180.0
 51
270.0
  0
LINE
  5
16B
330
1F
100
AcDbEntity
  8
0
  6
Continuous
 62
     7
370
    50
100
AcDbLine
 10
227.5674558206
 20
249.3442611654
 30
0.0
 11
227.5674558206
 21
254.4712778192
 31
0.0
  0
ARC
  5
16C
330
1F
100
AcDbEntity
  8
0
  6
Continuous
 62
     7
370
    50
100
AcDbCircle
 10
228.5674558206
 20
254.4712778192
 30
0.0
 40
1.0
100
AcDbArc
 50
104.4775121859
 51
180.0
  0
ARC
  5
16D
330
1F
100
AcDbEntity
  8
0
  6
Continuous
 62
     7
370
    50
100
AcDbCircle
 10
227.5674558206
 20
258.3442611654
 30
0.0
 40
3.0
100
AcDbArc
 50
284.4775121859
 51
90.0
  0
LINE
  5
16E
330
1F
100
AcDbEntity
  8
0
  6
Continuous
 62
     7
370
    50
100
AcDbLine
 10
227.5674558206
 20
261.3442611654
 30
0.0
 11
222.5674558206
 21
261.3442611654
 31
0.0
  0
ARC
  5
16F
330
1F
100
AcDbEntity
  8
0
  6
Continuous
 62
     7
370
    50
100
AcDbCircle
 10
222.5674558206
 20
258.3442611654
 30
0.0
 40
3.0
100
AcDbArc
 50
90.0
 51
255.5224878141
  0
ARC
  5
170
330
1F
100
AcDbEntity
  8
0
  6
Continuous
 62
     7
370
    50
100
AcDbCircle
 10
221.5674558206
 20
254.4712778192
 30
0.0
 40
1.000000000000004
100
AcDbArc
 50
0.0
 51
75.5224878141
  0
LINE
  5
171
330
1F
100
AcDbEntity
  8
0
  6
Continuous
 62
     7
370
    50
100
AcDbLine
 10
222.5674558206
 20
254.4712778192
 30
0.0
 11
222.5674558206
 21
249.3442611654
 31
0.0
  0
ARC
  5
172
330
1F
100
AcDbEntity
  8
0
  6
Continuous
 62
     7
370
    50
100
AcDbCircle
 10
220.5674558206
 20
249.3442611654
 30
0.0
 40
2.000000000000028
100
AcDbArc
 50
270.0
 51
0.0
  0
LINE
  5
173
330
1F
100
AcDbEntity
  8
0
  6
Continuous
 62
     7
370
    50
100
AcDbLine
 10
220.5674558206
 20
247.3442611654
 30
0.0
 11
215.5674558206
 21
247.3442611654
 31
0.0
  0
ARC
  5
174
330
1F
100
AcDbEntity
  8
0
  6
Continuous
 62
     7
370
    50
100
AcDbCircle
 10
215.5674558206
 20
249.3442611654
 30
0.0
 40
2.000000000000028
100
AcDbArc
 50
180.0
 51
270.0
  0
LINE
  5
175
330
1F
100
AcDbEntity
  8
0
  6
Continuous
 62
     7
370
    50
100
AcDbLine
 10
213.5674558206
 20
249.3442611654
 30
0.0
 11
213.5674558206
 21
254.4712778192
 31
0.0
  0
ARC
  5
176
330
1F
100
AcDbEntity
  8
0
  6
Continuous
 62
     7
370
    50
100
AcDbCircle
 10
214.5674558206
 20
254.4712778192
 30
0.0
 40
1.0
100
AcDbArc
 50
104.4775121859
 51
180.0
  0
ARC
  5
177
330
1F
100
AcDbEntity
  8
0
  6
Continuous
 62
     7
370
    50
100
AcDbCircle
 10
213.5674558206
 20
258.3442611654
 30
0.0
 40
3.0
100
AcDbArc
 50
284.4775121859
 51
90.0
  0
LINE
  5
178
330
1F
100
AcDbEntity
  8
0
  6
Continuous
 62
     7
370
    50
100
AcDbLine
 10
213.5674558206
 20
261.3442611654
 30
0.0
 11
208.5674558206
 21
261.3442611654
 31
0.0
  0
ARC
  5
179
330
1F
100
AcDbEntity
  8
0
  6
Continuous
 62
     7
370
    50
100
AcDbCircle
 10
208.5674558206
 20
258.3442611654
 30
0.0
 40
3.0
100
AcDbArc
 50
90.0
 51
255.5224878141
  0
ARC
  5
17A
330
1F
100
AcDbEntity
  8
0
  6
Continuous
 62
     7
370
    50
100
AcDbCircle
 10
207.5674558206
 20
254.4712778192
 30
0.0
 40
1.000000000000004
100
AcDbArc
 50
0.0
 51
75.5224878141
  0
LINE
  5
17B
330
1F
100
AcDbEntity
  8
0
  6
Continuous
 62
     7
370
    50
100
AcDbLine
 10
208.5674558206
 20
254.4712778192
 30
0.0
 11
208.5674558206
 21
249.3442611654
 31
0.0
  0
ARC
  5
17C
330
1F
100
AcDbEntity
  8
0
  6
Continuous
 62
     7
370
    50
100
AcDbCircle
 10
206.5674558206
 20
249.3442611654
 30
0.0
 40
2.000000000000028
100
AcDbArc
 50
270.0
 51
0.0
  0
LINE
  5
17D
330
1F
100
AcDbEntity
  8
0
  6
Continuous
 62
     7
370
    50
100
AcDbLine
 10
206.5674558206
 20
247.3442611654
 30
0.0
 11
201.5674558206
 21
247.3442611654
 31
0.0
  0
ARC
  5
17E
330
1F
100
AcDbEntity
  8
0
  6
Continuous
 62
     7
370
    50
100
AcDbCircle
 10
201.5674558206
 20
249.3442611654
 30
0.0
 40
2.000000000000028
100
AcDbArc
 50
180.0
 51
270.0
  0
LINE
  5
17F
330
1F
100
AcDbEntity
  8
0
  6
Continuous
 62
     7
370
    50
100
AcDbLine
 10
199.5674558206
 20
249.3442611654
 30
0.0
 11
199.5674558206
 21
254.4712778192
 31
0.0
  0
ARC
  5
180
330
1F
100
AcDbEntity
  8
0
  6
Continuous
 62
     7
370
    50
100
AcDbCircle
 10
200.5674558206
 20
254.4712778192
 30
0.0
 40
1.0
100
AcDbArc
 50
104.4775121859
 51
180.0
  0
ARC
  5
181
330
1F
100
AcDbEntity
  8
0
  6
Continuous
 62
     7
370
    50
100
AcDbCircle
 10
199.5674558206
 20
258.3442611654
 30
0.0
 40
3.0
100
AcDbArc
 50
284.4775121859
 51
90.0
  0
LINE
  5
182
330
1F
100
AcDbEntity
  8
0
  6
Continuous
 62
     7
370
    50
100
AcDbLine
 10
199.5674558206
 20
261.3442611654
 30
0.0
 11
194.5674558206
 21
261.3442611654
 31
0.0
  0
ARC
  5
183
330
1F
100
AcDbEntity
  8
0
  6
Continuous
 62
     7
370
    50
100
AcDbCircle
 10
194.5674558206
 20
258.3442611654
 30
0.0
 40
3.0
100
AcDbArc
 50
90.0
 51
255.5224878141
  0
ARC
  5
184
330
1F
100
AcDbEntity
  8
0
  6
Continuous
 62
     7
370
    50
100
AcDbCircle
 10
193.5674558206
 20
254.4712778192
 30
0.0
 40
1.000000000000004
100
AcDbArc
 50
0.0
 51
75.5224878141
  0
LINE
  5
185
330
1F
100
AcDbEntity
  8
0
  6
Continuous
 62
     7
370
    50
100
AcDbLine
 10
194.5674558206
 20
254.4712778192
 30
0.0
 11
194.5674558206
 21
249.3442611654
 31
0.0
  0
ARC
  5
186
330
1F
100
AcDbEntity
  8
0
  6
Continuous
 62
     7
370
    50
100
AcDbCircle
 10
192.5674558206
 20
249.3442611654
 30
0.0
 40
2.000000000000028
100
AcDbArc
 50
270.0
 51
0.0
  0
LINE
  5
187
330
1F
100
AcDbEntity
  8
0
  6
Continuous
 62
     7
370
    50
100
AcDbLine
 10
192.5674558206
 20
247.3442611654
 30
0.0
 11
187.5674558206
 21
247.3442611654
 31
0.0
  0
ARC
  5
188
330
1F
100
AcDbEntity
  8
0
  6
Continuous
 62
     7
370
    50
100
AcDbCircle
 10
187.5674558206
 20
249.3442611654
 30
0.0
 40
2.000000000000028
100
AcDbArc
 50
180.0
 51
270.0
  0
LINE
  5
189
330
1F
100
AcDbEntity
  8
0
  6
Continuous
 62
     7
370
    50
100
AcDbLine
 10
185.5674558206
 20
249.3442611654
 30
0.0
 11
185.5674558206
 21
254.4712778192
 31
0.0
  0
ARC
  5
18A
330
1F
100
AcDbEntity
  8
0
  6
Continuous
 62
     7
370
    50
100
AcDbCircle
 10
186.5674558206
 20
254.4712778192
 30
0.0
 40
1.0
100
AcDbArc
 50
104.4775121859
 51
180.0
  0
ARC
  5
18B
330
1F
100
AcDbEntity
  8
0
  6
Continuous
 62
     7
370
    50
100
AcDbCircle
 10
185.5674558206
 20
258.3442611654
 30
0.0
 40
3.0
100
AcDbArc
 50
284.4775121859
 51
90.0
  0
LINE
  5
18C
330
1F
100
AcDbEntity
  8
0
  6
Continuous
 62
     7
370
    50
100
AcDbLine
 10
185.5674558206
 20
261.3442611654
 30
0.0
 11
180.5674558206
 21
261.3442611654
 31
0.0
  0
ARC
  5
18D
330
1F
100
AcDbEntity
  8
0
  6
Continuous
 62
     7
370
    50
100
AcDbCircle
 10
180.5674558206
 20
258.3442611654
 30
0.0
 40
3.0
100
AcDbArc
 50
90.0
 51
255.5224878141
  0
ARC
  5
18E
330
1F
100
AcDbEntity
  8
0
  6
Continuous
 62
     7
370
    50
100
AcDbCircle
 10
179.5674558206
 20
254.4712778192
 30
0.0
 40
1.000000000000004
100
AcDbArc
 50
0.0
 51
75.5224878141
  0
LINE
  5
18F
330
1F
100
AcDbEntity
  8
0
  6
Continuous
 62
     7
370
    50
100
AcDbLine
 10
180.5674558206
 20
254.4712778192
 30
0.0
 11
180.5674558206
 21
249.3442611654
 31
0.0
  0
ARC
  5
190
330
1F
100
AcDbEntity
  8
0
  6
Continuous
 62
     7
370
    50
100
AcDbCircle
 10
178.5674558206
 20
249.3442611654
 30
0.0
 40
2.000000000000028
100
AcDbArc
 50
270.0
 51
0.0
  0
LINE
  5
191
330
1F
100
AcDbEntity
  8
0
  6
Continuous
 62
     7
370
    50
100
AcDbLine
 10
178.5674558206
 20
247.3442611654
 30
0.0
 11
173.5674558206
 21
247.3442611654
 31
0.0
  0
ARC
  5
192
330
1F
100
AcDbEntity
  8
0
  6
Continuous
 62
     7
370
    50
100
AcDbCircle
 10
173.5674558206
 20
249.3442611654
 30
0.0
 40
2.000000000000028
100
AcDbArc
 50
180.0
 51
270.0
  0
LINE
  5
193
330
1F
100
AcDbEntity
  8
0
  6
Continuous
 62
     7
370
    50
100
AcDbLine
 10
171.5674558206
 20
249.3442611654
 30
0.0
 11
171.5674558206
 21
254.4712778192
 31
0.0
  0
ARC
  5
194
330
1F
100
AcDbEntity
  8
0
  6
Continuous
 62
     7
370
    50
100
AcDbCircle
 10
172.5674558206
 20
254.4712778192
 30
0.0
 40
1.0
100
AcDbArc
 50
104.4775121859
 51
180.0
  0
ARC
  5
195
330
1F
100
AcDbEntity
  8
0
  6
Continuous
 62
     7
370
    50
100
AcDbCircle
 10
171.5674558206
 20
258.3442611654
 30
0.0
 40
3.0
100
AcDbArc
 50
284.4775121859
 51
90.0
  0
LINE
  5
196
330
1F
100
AcDbEntity
  8
0
  6
Continuous
 62
     7
370
    50
100
AcDbLine
 10
171.5674558206
 20
261.3442611654
 30
0.0
 11
166.5674558206
 21
261.3442611654
 31
0.0
  0
ARC
  5
197
330
1F
100
AcDbEntity
  8
0
  6
Continuous
 62
     7
370
    50
100
AcDbCircle
 10
166.5674558206
 20
258.3442611654
 30
0.0
 40
3.0
100
AcDbArc
 50
90.0
 51
255.5224878141
  0
ARC
  5
198
330
1F
100
AcDbEntity
  8
0
  6
Continuous
 62
     7
370
    50
100
AcDbCircle
 10
165.5674558206
 20
254.4712778192
 30
0.0
 40
1.000000000000004
100
AcDbArc
 50
0.0
 51
75.5224878141
  0
LINE
  5
199
330
1F
100
AcDbEntity
  8
0
  6
Continuous
 62
     7
370
    50
100
AcDbLine
 10
166.5674558206
 20
254.4712778192
 30
0.0
 11
166.5674558206
 21
249.3442611654
 31
0.0
  0
ARC
  5
19A
330
1F
100
AcDbEntity
  8
0
  6
Continuous
 62
     7
370
    50
100
AcDbCircle
 10
164.5674558206
 20
249.3442611654
 30
0.0
 40
2.000000000000028
100
AcDbArc
 50
270.0
 51
0.0
  0
LINE
  5
19B
330
1F
100
AcDbEntity
  8
0
  6
Continuous
 62
     7
370
    50
100
AcDbLine
 10
164.5674558206
 20
247.3442611654
 30
0.0
 11
159.5674558206
 21
247.3442611654
 31
0.0
  0
ARC
  5
19C
330
1F
100
AcDbEntity
  8
0
  6
Continuous
 62
     7
370
    50
100
AcDbCircle
 10
159.5674558206
 20
249.3442611654
 30
0.0
 40
2.000000000000028
100
AcDbArc
 50
180.0
 51
270.0
  0
LINE
  5
19D
330
1F
100
AcDbEntity
  8
0
  6
Continuous
 62
     7
370
    50
100
AcDbLine
 10
157.5674558206
 20
249.3442611654
 30
0.0
 11
157.5674558206
 21
254.4712778192
 31
0.0
  0
ARC
  5
19E
330
1F
100
AcDbEntity
  8
0
  6
Continuous
 62
     7
370
    50
100
AcDbCircle
 10
158.5674558206
 20
254.4712778192
 30
0.0
 40
1.0
100
AcDbArc
 50
104.4775121859
 51
180.0
  0
ARC
  5
19F
330
1F
100
AcDbEntity
  8
0
  6
Continuous
 62
     7
370
    50
100
AcDbCircle
 10
157.5674558206
 20
258.3442611654
 30
0.0
 40
3.0
100
AcDbArc
 50
284.4775121859
 51
90.0
  0
LINE
  5
1A0
330
1F
100
AcDbEntity
  8
0
  6
Continuous
 62
     7
370
    50
100
AcDbLine
 10
157.5674558206
 20
261.3442611654
 30
0.0
 11
152.5674558206
 21
261.3442611654
 31
0.0
  0
ARC
  5
1A1
330
1F
100
AcDbEntity
  8
0
  6
Continuous
 62
     7
370
    50
100
AcDbCircle
 10
152.5674558206
 20
258.3442611654
 30
0.0
 40
3.0
100
AcDbArc
 50
90.0
 51
255.5224878141
  0
ARC
  5
1A2
330
1F
100
AcDbEntity
  8
0
  6
Continuous
 62
     7
370
    50
100
AcDbCircle
 10
151.5674558206
 20
254.4712778192
 30
0.0
 40
1.0
100
AcDbArc
 50
0.0
 51
75.5224878141
  0
LINE
  5
1A3
330
1F
100
AcDbEntity
  8
0
  6
Continuous
 62
     7
370
    50
100
AcDbLine
 10
152.5674558206
 20
254.4712778192
 30
0.0
 11
152.5674558206
 21
249.3442611654
 31
0.0
  0
ARC
  5
1A4
330
1F
100
AcDbEntity
  8
0
  6
Continuous
 62
     7
370
    50
100
AcDbCircle
 10
150.5674558206
 20
249.3442611654
 30
0.0
 40
2.000000000000028
100
AcDbArc
 50
270.0
 51
0.0
  0
LINE
  5
1A5
330
1F
100
AcDbEntity
  8
0
  6
Continuous
 62
     7
370
    50
100
AcDbLine
 10
150.5674558206
 20
247.3442611654
 30
0.0
 11
145.5674558206
 21
247.3442611654
 31
0.0
  0
ARC
  5
1A6
330
1F
100
AcDbEntity
  8
0
  6
Continuous
 62
     7
370
    50
100
AcDbCircle
 10
145.5674558206
 20
249.3442611654
 30
0.0
 40
2.000000000000028
100
AcDbArc
 50
180.0
 51
270.0
  0
LINE
  5
1A7
330
1F
100
AcDbEntity
  8
0
  6
Continuous
 62
     7
370
    50
100
AcDbLine
 10
143.5674558206
 20
249.3442611654
 30
0.0
 11
143.5674558206
 21
254.4712778192
 31
0.0
  0
ARC
  5
1A8
330
1F
100
AcDbEntity
  8
0
  6
Continuous
 62
     7
370
    50
100
AcDbCircle
 10
144.5674558206
 20
254.4712778192
 30
0.0
 40
1.0
100
AcDbArc
 50
104.4775121859
 51
180.0
  0
ARC
  5
1A9
330
1F
100
AcDbEntity
  8
0
  6
Continuous
 62
     7
370
    50
100
AcDbCircle
 10
143.5674558206
 20
258.3442611654
 30
0.0
 40
3.0
100
AcDbArc
 50
284.4775121859
 51
90.0
  0
LINE
  5
1AA
330
1F
100
AcDbEntity
  8
0
  6
Continuous
 62
     7
370
    50
100
AcDbLine
 10
143.5674558206
 20
261.3442611654
 30
0.0
 11
138.5674558206
 21
261.3442611654
 31
0.0
  0
ARC
  5
1AB
330
1F
100
AcDbEntity
  8
0
  6
Continuous
 62
     7
370
    50
100
AcDbCircle
 10
138.5674558206
 20
258.3442611654
 30
0.0
 40
3.0
100
AcDbArc
 50
90.0
 51
255.5224878141
  0
ARC
  5
1AC
330
1F
100
AcDbEntity
  8
0
  6
Continuous
 62
     7
370
    50
100
AcDbCircle
 10
137.5674558206
 20
254.4712778192
 30
0.0
 40
1.000000000000004
100
AcDbArc
 50
0.0
 51
75.5224878141
  0
LINE
  5
1AD
330
1F
100
AcDbEntity
  8
0
  6
Continuous
 62
     7
370
    50
100
AcDbLine
 10
138.5674558206
 20
254.4712778192
 30
0.0
 11
138.5674558206
 21
249.3442611654
 31
0.0
  0
ARC
  5
1AE
330
1F
100
AcDbEntity
  8
0
  6
Continuous
 62
     7
370
    50
100
AcDbCircle
 10
136.5674558206
 20
249.3442611654
 30
0.0
 40
2.000000000000028
100
AcDbArc
 50
270.0
 51
0.0
  0
LINE
  5
1AF
330
1F
100
AcDbEntity
  8
0
  6
Continuous
 62
     7
370
    50
100
AcDbLine
 10
136.5674558206
 20
247.3442611654
 30
0.0
 11
131.5674558206
 21
247.3442611654
 31
0.0
  0
ARC
  5
1B0
330
1F
100
AcDbEntity
  8
0
  6
Continuous
 62
     7
370
    50
100
AcDbCircle
 10
131.5674558206
 20
249.3442611654
 30
0.0
 40
2.000000000000028
100
AcDbArc
 50
180.0
 51
270.0
  0
LINE
  5
1B1
330
1F
100
AcDbEntity
  8
0
  6
Continuous
 62
     7
370
    50
100
AcDbLine
 10
129.5674558206
 20
249.3442611654
 30
0.0
 11
129.5674558206
 21
254.4712778192
 31
0.0
  0
ARC
  5
1B2
330
1F
100
AcDbEntity
  8
0
  6
Continuous
 62
     7
370
    50
100
AcDbCircle
 10
130.5674558206
 20
254.4712778192
 30
0.0
 40
1.0
100
AcDbArc
 50
104.4775121859
 51
180.0
  0
ARC
  5
1B3
330
1F
100
AcDbEntity
  8
0
  6
Continuous
 62
     7
370
    50
100
AcDbCircle
 10
129.5674558206
 20
258.3442611654
 30
0.0
 40
3.0
100
AcDbArc
 50
284.4775121859
 51
90.0
  0
LINE
  5
1B4
330
1F
100
AcDbEntity
  8
0
  6
Continuous
 62
     7
370
    50
100
AcDbLine
 10
129.5674558206
 20
261.3442611654
 30
0.0
 11
124.5674558206
 21
261.3442611654
 31
0.0
  0
ARC
  5
1B5
330
1F
100
AcDbEntity
  8
0
  6
Continuous
 62
     7
370
    50
100
AcDbCircle
 10
124.5674558206
 20
258.3442611654
 30
0.0
 40
3.0
100
AcDbArc
 50
90.0
 51
255.5224878141
  0
ARC
  5
1B6
330
1F
100
AcDbEntity
  8
0
  6
Continuous
 62
     7
370
    50
100
AcDbCircle
 10
123.5674558206
 20
254.4712778192
 30
0.0
 40
1.000000000000004
100
AcDbArc
 50
0.0
 51
75.5224878141
  0
LINE
  5
1B7
330
1F
100
AcDbEntity
  8
0
  6
Continuous
 62
     7
370
    50
100
AcDbLine
 10
124.5674558206
 20
254.4712778192
 30
0.0
 11
124.5674558206
 21
249.3442611654
 31
0.0
  0
ARC
  5
1B8
330
1F
100
AcDbEntity
  8
0
  6
Continuous
 62
     7
370
    50
100
AcDbCircle
 10
122.5674558206
 20
249.3442611654
 30
0.0
 40
2.000000000000028
100
AcDbArc
 50
270.0
 51
0.0
  0
LINE
  5
1B9
330
1F
100
AcDbEntity
  8
0
  6
Continuous
 62
     7
370
    50
100
AcDbLine
 10
122.5674558206
 20
247.3442611654
 30
0.0
 11
117.5674558206
 21
247.3442611654
 31
0.0
  0
ARC
  5
1BA
330
1F
100
AcDbEntity
  8
0
  6
Continuous
 62
     7
370
    50
100
AcDbCircle
 10
117.5674558206
 20
249.3442611654
 30
0.0
 40
2.000000000000028
100
AcDbArc
 50
180.0
 51
270.0
  0
LINE
  5
1BB
330
1F
100
AcDbEntity
  8
0
  6
Continuous
 62
     7
370
    50
100
AcDbLine
 10
115.5674558206
 20
249.3442611654
 30
0.0
 11
115.5674558206
 21
254.4712778192
 31
0.0
  0
ARC
  5
1BC
330
1F
100
AcDbEntity
  8
0
  6
Continuous
 62
     7
370
    50
100
AcDbCircle
 10
116.5674558206
 20
254.4712778192
 30
0.0
 40
1.0
100
AcDbArc
 50
104.4775121859
 51
180.0
  0
ARC
  5
1BD
330
1F
100
AcDbEntity
  8
0
  6
Continuous
 62
     7
370
    50
100
AcDbCircle
 10
115.5674558206
 20
258.3442611654
 30
0.0
 40
3.0
100
AcDbArc
 50
284.4775121859
 51
90.0
  0
LINE
  5
1BE
330
1F
100
AcDbEntity
  8
0
  6
Continuous
 62
     7
370
    50
100
AcDbLine
 10
115.5674558206
 20
261.3442611654
 30
0.0
 11
110.5674558206
 21
261.3442611654
 31
0.0
  0
ARC
  5
1BF
330
1F
100
AcDbEntity
  8
0
  6
Continuous
 62
     7
370
    50
100
AcDbCircle
 10
110.5674558206
 20
258.3442611654
 30
0.0
 40
3.0
100
AcDbArc
 50
90.0
 51
255.5224878141
  0
ARC
  5
1C0
330
1F
100
AcDbEntity
  8
0
  6
Continuous
 62
     7
370
    50
100
AcDbCircle
 10
109.5674558206
 20
254.4712778192
 30
0.0
 40
1.000000000000004
100
AcDbArc
 50
0.0
 51
75.5224878141
  0
LINE
  5
1C1
330
1F
100
AcDbEntity
  8
0
  6
Continuous
 62
     7
370
    50
100
AcDbLine
 10
110.5674558206
 20
254.4712778192
 30
0.0
 11
110.5674558206
 21
249.3442611654
 31
0.0
  0
ARC
  5
1C2
330
1F
100
AcDbEntity
  8
0
  6
Continuous
 62
     7
370
    50
100
AcDbCircle
 10
108.5674558206
 20
249.3442611654
 30
0.0
 40
2.000000000000028
100
AcDbArc
 50
270.0
 51
0.0
  0
LINE
  5
1C3
330
1F
100
AcDbEntity
  8
0
  6
Continuous
 62
     7
370
    50
100
AcDbLine
 10
108.5674558206
 20
247.3442611654
 30
0.0
 11
103.5674558206
 21
247.3442611654
 31
0.0
  0
ARC
  5
1C4
330
1F
100
AcDbEntity
  8
0
  6
Continuous
 62
     7
370
    50
100
AcDbCircle
 10
103.5674558206
 20
249.3442611654
 30
0.0
 40
2.000000000000028
100
AcDbArc
 50
180.0
 51
270.0
  0
LINE
  5
1C5
330
1F
100
AcDbEntity
  8
0
  6
Continuous
 62
     7
370
    50
100
AcDbLine
 10
101.5674558206
 20
249.3442611654
 30
0.0
 11
101.5674558206
 21
254.4712778192
 31
0.0
  0
ARC
  5
1C6
330
1F
100
AcDbEntity
  8
0
  6
Continuous
 62
     7
370
    50
100
AcDbCircle
 10
102.5674558206
 20
254.4712778192
 30
0.0
 40
1.0
100
AcDbArc
 50
104.4775121859
 51
180.0
  0
ARC
  5
1C7
330
1F
100
AcDbEntity
  8
0
  6
Continuous
 62
     7
370
    50
100
AcDbCircle
 10
101.5674558206
 20
258.3442611654
 30
0.0
 40
3.0
100
AcDbArc
 50
284.4775121859
 51
90.0
  0
LINE
  5
1C8
330
1F
100
AcDbEntity
  8
0
  6
Continuous
 62
     7
370
    50
100
AcDbLine
 10
101.5674558206
 20
261.3442611654
 30
0.0
 11
96.5674558206
 21
261.3442611654
 31
0.0
  0
ARC
  5
1C9
330
1F
100
AcDbEntity
  8
0
  6
Continuous
 62
     7
370
    50
100
AcDbCircle
 10
96.5674558206
 20
258.3442611654
 30
0.0
 40
3.0
100
AcDbArc
 50
90.0
 51
255.5224878141
  0
ARC
  5
1CA
330
1F
100
AcDbEntity
  8
0
  6
Continuous
 62
     7
370
    50
100
AcDbCircle
 10
95.5674558206
 20
254.4712778192
 30
0.0
 40
1.000000000000004
100
AcDbArc
 50
0.0
 51
75.5224878141
  0
LINE
  5
1CB
330
1F
100
AcDbEntity
  8
0
  6
Continuous
 62
     7
370
    50
100
AcDbLine
 10
96.5674558206
 20
254.4712778192
 30
0.0
 11
96.5674558206
 21
249.3442611654
 31
0.0
  0
ARC
  5
1CC
330
1F
100
AcDbEntity
  8
0
  6
Continuous
 62
     7
370
    50
100
AcDbCircle
 10
94.5674558206
 20
249.3442611654
 30
0.0
 40
2.000000000000028
100
AcDbArc
 50
270.0
 51
0.0
  0
LINE
  5
1CD
330
1F
100
AcDbEntity
  8
0
  6
Continuous
 62
     7
370
    50
100
AcDbLine
 10
94.5674558206
 20
247.3442611654
 30
0.0
 11
89.5674558206
 21
247.3442611654
 31
0.0
  0
ARC
  5
1CE
330
1F
100
AcDbEntity
  8
0
  6
Continuous
 62
     7
370
    50
100
AcDbCircle
 10
89.5674558206
 20
249.3442611654
 30
0.0
 40
2.000000000000028
100
AcDbArc
 50
180.0
 51
270.0
  0
LINE
  5
1CF
330
1F
100
AcDbEntity
  8
0
  6
Continuous
 62
     7
370
    50
100
AcDbLine
 10
87.5674558206
 20
249.3442611654
 30
0.0
 11
87.5674558206
 21
254.4712778192
 31
0.0
  0
ARC
  5
1D0
330
1F
100
AcDbEntity
  8
0
  6
Continuous
 62
     7
370
    50
100
AcDbCircle
 10
88.5674558206
 20
254.4712778192
 30
0.0
 40
1.0
100
AcDbArc
 50
104.4775121859
 51
180.0
  0
ARC
  5
1D1
330
1F
100
AcDbEntity
  8
0
  6
Continuous
 62
     7
370
    50
100
AcDbCircle
 10
87.5674558206
 20
258.3442611654
 30
0.0
 40
3.0
100
AcDbArc
 50
284.4775121859
 51
90.0
  0
LINE
  5
1D2
330
1F
100
AcDbEntity
  8
0
  6
Continuous
 62
     7
370
    50
100
AcDbLine
 10
87.5674558206
 20
261.3442611654
 30
0.0
 11
82.5674558206
 21
261.3442611654
 31
0.0
  0
ARC
  5
1D3
330
1F
100
AcDbEntity
  8
0
  6
Continuous
 62
     7
370
    50
100
AcDbCircle
 10
82.5674558206
 20
258.3442611654
 30
0.0
 40
3.0
100
AcDbArc
 50
90.0
 51
255.5224878141
  0
ARC
  5
1D4
330
1F
100
AcDbEntity
  8
0
  6
Continuous
 62
     7
370
    50
100
AcDbCircle
 10
81.5674558206
 20
254.4712778192
 30
0.0
 40
1.000000000000004
100
AcDbArc
 50
0.0
 51
75.5224878141
  0
LINE
  5
1D5
330
1F
100
AcDbEntity
  8
0
  6
Continuous
 62
     7
370
    50
100
AcDbLine
 10
82.5674558206
 20
254.4712778192
 30
0.0
 11
82.5674558206
 21
249.3442611654
 31
0.0
  0
ARC
  5
1D6
330
1F
100
AcDbEntity
  8
0
  6
Continuous
 62
     7
370
    50
100
AcDbCircle
 10
80.5674558206
 20
249.3442611654
 30
0.0
 40
2.000000000000028
100
AcDbArc
 50
270.0
 51
0.0
  0
LINE
  5
1D7
330
1F
100
AcDbEntity
  8
0
  6
Continuous
 62
     7
370
    50
100
AcDbLine
 10
80.5674558206
 20
247.3442611654
 30
0.0
 11
75.5674558206
 21
247.3442611654
 31
0.0
  0
ARC
  5
1D8
330
1F
100
AcDbEntity
  8
0
  6
Continuous
 62
     7
370
    50
100
AcDbCircle
 10
75.5674558206
 20
249.3442611654
 30
0.0
 40
2.000000000000028
100
AcDbArc
 50
180.0
 51
270.0
  0
LINE
  5
1D9
330
1F
100
AcDbEntity
  8
0
  6
Continuous
 62
     7
370
    50
100
AcDbLine
 10
73.5674558206
 20
249.3442611654
 30
0.0
 11
73.5674558206
 21
254.4712778192
 31
0.0
  0
ARC
  5
1DA
330
1F
100
AcDbEntity
  8
0
  6
Continuous
 62
     7
370
    50
100
AcDbCircle
 10
74.5674558206
 20
254.4712778192
 30
0.0
 40
1.0
100
AcDbArc
 50
104.4775121859
 51
180.0
  0
ARC
  5
1DB
330
1F
100
AcDbEntity
  8
0
  6
Continuous
 62
     7
370
    50
100
AcDbCircle
 10
73.5674558206
 20
258.3442611654
 30
0.0
 40
3.0
100
AcDbArc
 50
284.4775121859
 51
90.0
  0
LINE
  5
1DC
330
1F
100
AcDbEntity
  8
0
  6
Continuous
 62
     7
370
    50
100
AcDbLine
 10
73.5674558206
 20
261.3442611654
 30
0.0
 11
68.5674558206
 21
261.3442611654
 31
0.0
  0
ARC
  5
1DD
330
1F
100
AcDbEntity
  8
0
  6
Continuous
 62
     7
370
    50
100
AcDbCircle
 10
68.5674558206
 20
258.3442611654
 30
0.0
 40
3.0
100
AcDbArc
 50
90.0
 51
255.5224878141
  0
ARC
  5
1DE
330
1F
100
AcDbEntity
  8
0
  6
Continuous
 62
     7
370
    50
100
AcDbCircle
 10
67.5674558206
 20
254.4712778192
 30
0.0
 40
1.000000000000014
100
AcDbArc
 50
0.0
 51
75.5224878141
  0
LINE
  5
1DF
330
1F
100
AcDbEntity
  8
0
  6
Continuous
 62
     7
370
    50
100
AcDbLine
 10
68.5674558206
 20
254.4712778192
 30
0.0
 11
68.5674558206
 21
249.3442611654
 31
0.0
  0
ARC
  5
1E0
330
1F
100
AcDbEntity
  8
0
  6
Continuous
 62
     7
370
    50
100
AcDbCircle
 10
66.5674558206
 20
249.3442611654
 30
0.0
 40
2.000000000000028
100
AcDbArc
 50
270.0
 51
0.0
  0
LINE
  5
1E1
330
1F
100
AcDbEntity
  8
0
  6
Continuous
 62
     7
370
    50
100
AcDbLine
 10
66.5674558206
 20
247.3442611654
 30
0.0
 11
61.5674558206
 21
247.3442611654
 31
0.0
  0
ARC
  5
1E2
330
1F
100
AcDbEntity
  8
0
  6
Continuous
 62
     7
370
    50
100
AcDbCircle
 10
61.5674558206
 20
249.3442611654
 30
0.0
 40
2.000000000000028
100
AcDbArc
 50
180.0
 51
270.0
  0
LINE
  5
1E3
330
1F
100
AcDbEntity
  8
0
  6
Continuous
 62
     7
370
    50
100
AcDbLine
 10
59.5674558206
 20
249.3442611654
 30
0.0
 11
59.5674558206
 21
254.4712778192
 31
0.0
  0
ARC
  5
1E4
330
1F
100
AcDbEntity
  8
0
  6
Continuous
 62
     7
370
    50
100
AcDbCircle
 10
60.5674558206
 20
254.4712778192
 30
0.0
 40
1.0
100
AcDbArc
 50
104.4775121859
 51
180.0
  0
ARC
  5
1E5
330
1F
100
AcDbEntity
  8
0
  6
Continuous
 62
     7
370
    50
100
AcDbCircle
 10
59.5674558206
 20
258.3442611654
 30
0.0
 40
3.0
100
AcDbArc
 50
284.4775121859
 51
90.0
  0
LINE
  5
1E6
330
1F
100
AcDbEntity
  8
0
  6
Continuous
 62
     7
370
    50
100
AcDbLine
 10
59.5674558206
 20
261.3442611654
 30
0.0
 11
54.5674558206
 21
261.3442611654
 31
0.0
  0
ARC
  5
1E7
330
1F
100
AcDbEntity
  8
0
  6
Continuous
 62
     7
370
    50
100
AcDbCircle
 10
54.5674558206
 20
258.3442611654
 30
0.0
 40
3.0
100
AcDbArc
 50
90.0
 51
255.5224878141
  0
ARC
  5
1E8
330
1F
100
AcDbEntity
  8
0
  6
Continuous
 62
     7
370
    50
100
AcDbCircle
 10
53.5674558206
 20
254.4712778192
 30
0.0
 40
1.000000000000004
100
AcDbArc
 50
0.0
 51
75.5224878141
  0
LINE
  5
1E9
330
1F
100
AcDbEntity
  8
0
  6
Continuous
 62
     7
370
    50
100
AcDbLine
 10
54.5674558206
 20
254.4712778192
 30
0.0
 11
54.5674558206
 21
249.3442611654
 31
0.0
  0
ARC
  5
1EA
330
1F
100
AcDbEntity
  8
0
  6
Continuous
 62
     7
370
    50
100
AcDbCircle
 10
52.5674558206
 20
249.3442611654
 30
0.0
 40
2.000000000000028
100
AcDbArc
 50
270.0
 51
0.0
  0
LINE
  5
1EB
330
1F
100
AcDbEntity
  8
0
  6
Continuous
 62
     7
370
    50
100
AcDbLine
 10
52.5674558206
 20
247.3442611654
 30
0.0
 11
47.5674558206
 21
247.3442611654
 31
0.0
  0
ARC
  5
1EC
330
1F
100
AcDbEntity
  8
0
  6
Continuous
 62
     7
370
    50
100
AcDbCircle
 10
47.5674558206
 20
249.3442611654
 30
0.0
 40
2.000000000000028
100
AcDbArc
 50
180.0
 51
270.0
  0
LINE
  5
1ED
330
1F
100
AcDbEntity
  8
0
  6
Continuous
 62
     7
370
    50
100
AcDbLine
 10
45.5674558206
 20
249.3442611654
 30
0.0
 11
45.5674558206
 21
254.4712778192
 31
0.0
  0
ARC
  5
1EE
330
1F
100
AcDbEntity
  8
0
  6
Continuous
 62
     7
370
    50
100
AcDbCircle
 10
46.5674558206
 20
254.4712778192
 30
0.0
 40
1.0
100
AcDbArc
 50
104.4775121859
 51
180.0
  0
ARC
  5
1EF
330
1F
100
AcDbEntity
  8
0
  6
Continuous
 62
     7
370
    50
100
AcDbCircle
 10
45.5674558206
 20
258.3442611654
 30
0.0
 40
3.0
100
AcDbArc
 50
284.4775121859
 51
90.0
  0
LINE
  5
1F0
330
1F
100
AcDbEntity
  8
0
  6
Continuous
 62
     7
370
    50
100
AcDbLine
 10
45.5674558206
 20
261.3442611654
 30
0.0
 11
40.5674558206
 21
261.3442611654
 31
0.0
  0
ARC
  5
1F1
330
1F
100
AcDbEntity
  8
0
  6
Continuous
 62
     7
370
    50
100
AcDbCircle
 10
40.5674558206
 20
258.3442611654
 30
0.0
 40
3.0
100
AcDbArc
 50
90.0
 51
255.5224878141
  0
ARC
  5
1F2
330
1F
100
AcDbEntity
  8
0
  6
Continuous
 62
     7
370
    50
100
AcDbCircle
 10
39.5674558206
 20
254.4712778192
 30
0.0
 40
1.000000000000007
100
AcDbArc
 50
0.0
 51
75.5224878141
  0
LINE
  5
1F3
330
1F
100
AcDbEntity
  8
0
  6
Continuous
 62
     7
370
    50
100
AcDbLine
 10
40.5674558206
 20
254.4712778192
 30
0.0
 11
40.5674558206
 21
249.3442611654
 31
0.0
  0
ARC
  5
1F4
330
1F
100
AcDbEntity
  8
0
  6
Continuous
 62
     7
370
    50
100
AcDbCircle
 10
38.5674558206
 20
249.3442611654
 30
0.0
 40
2.000000000000028
100
AcDbArc
 50
270.0
 51
0.0
  0
LINE
  5
1F5
330
1F
100
AcDbEntity
  8
0
  6
Continuous
 62
     7
370
    50
100
AcDbLine
 10
38.5674558206
 20
247.3442611654
 30
0.0
 11
33.5674558206
 21
247.3442611654
 31
0.0
  0
ARC
  5
1F6
330
1F
100
AcDbEntity
  8
0
  6
Continuous
 62
     7
370
    50
100
AcDbCircle
 10
33.5674558206
 20
249.3442611654
 30
0.0
 40
2.000000000000028
100
AcDbArc
 50
180.0
 51
270.0
  0
LINE
  5
1F7
330
1F
100
AcDbEntity
  8
0
  6
Continuous
 62
     7
370
    50
100
AcDbLine
 10
31.5674558206
 20
249.3442611654
 30
0.0
 11
31.5674558206
 21
254.4712778192
 31
0.0
  0
ARC
  5
1F8
330
1F
100
AcDbEntity
  8
0
  6
Continuous
 62
     7
370
    50
100
AcDbCircle
 10
32.5674558206
 20
254.4712778192
 30
0.0
 40
0.999999999999997
100
AcDbArc
 50
104.4775121859
 51
180.0
  0
ARC
  5
1F9
330
1F
100
AcDbEntity
  8
0
  6
Continuous
 62
     7
370
    50
100
AcDbCircle
 10
31.5674558206
 20
258.3442611654
 30
0.0
 40
3.0
100
AcDbArc
 50
284.4775121859
 51
90.0
  0
LINE
  5
1FA
330
1F
100
AcDbEntity
  8
0
  6
Continuous
 62
     7
370
    50
100
AcDbLine
 10
31.5674558206
 20
261.3442611654
 30
0.0
 11
28.5674558205
 21
261.3442611654
 31
0.0
  0
ARC
  5
1FB
330
1F
100
AcDbEntity
  8
0
  6
Continuous
 62
     7
370
    50
100
AcDbCircle
 10
28.5674558205
 20
263.3442611654
 30
0.0
 40
2.000000000000004
100
AcDbArc
 50
180.0
 51
270.0
  0
LINE
  5
1FC
330
1F
100
AcDbEntity
  8
0
  6
Continuous
 62
     7
370
    50
100
AcDbLine
 10
26.5674558205
 20
271.3442611654
 30
0.0
 11
26.5674558205
 21
263.3442611654
 31
0.0
  0
LINE
  5
1FD
330
1F
100
AcDbEntity
  8
0
  6
Continuous
 62
     7
370
    50
100
AcDbLine
 10
-3.9325441794
 20
273.2413953808
 30
0.0
 11
-3.9325441794
 21
272.8954009791
 31
0.0
  0
LINE
  5
1FE
330
1F
100
AcDbEntity
  8
0
  6
Continuous
 62
     7
370
    50
100
AcDbLine
 10
-3.9305651386
 20
273.2553103534
 30
0.0
 11
-3.9325441794
 21
273.2413953808
 31
0.0
  0
LINE
  5
1FF
330
1F
100
AcDbEntity
  8
0
  6
Continuous
 62
     7
370
    50
100
AcDbLine
 10
426.0654767797
 20
273.2553103534
 30
0.0
 11
426.0674558206
 21
273.2413953808
 31
0.0
  0
LINE
  5
200
330
1F
100
AcDbEntity
  8
0
  6
Continuous
 62
     7
370
    50
100
AcDbLine
 10
426.0674558206
 20
273.2413953808
 30
0.0
 11
426.0674558206
 21
272.8954009791
 31
0.0
  0
LINE
  5
201
330
1F
100
AcDbEntity
  8
0
  6
Continuous
 62
     7
370
    50
100
AcDbLine
 10
-3.9325441794
 20
272.8646218306
 30
0.0
 11
-3.9325441794
 21
272.8954009791
 31
0.0
  0
LINE
  5
202
330
1F
100
AcDbEntity
  8
0
  6
Continuous
 62
     7
370
    50
100
AcDbLine
 10
426.0674558206
 20
272.8646218306
 30
0.0
 11
426.0674558206
 21
272.8954009791
 31
0.0
  0
LINE
  5
203
330
1F
100
AcDbEntity
  8
0
  6
Continuous
 62
     8
370
    50
100
AcDbLine
 10
-3.8815245624
 20
272.8954009791
 30
0.0
 11
-3.9325441794
 21
272.8954009791
 31
0.0
  0
LINE
  5
204
330
1F
100
AcDbEntity
  8
0
  6
Continuous
 62
     8
370
    50
100
AcDbLine
 10
426.0164362035
 20
272.8954009791
 30
0.0
 11
426.0674558206
 21
272.8954009791
 31
0.0
  0
LINE
  5
205
330
1F
100
AcDbEntity
  8
0
  6
Continuous
 62
     7
370
    50
100
AcDbLine
 10
426.0674558206
 20
26.5559183414
 30
0.0
 11
415.2674558206
 21
26.5559183414
 31
0.0
  0
LINE
  5
206
330
1F
100
AcDbEntity
  8
0
  6
Continuous
 62
     7
370
    50
100
AcDbLine
 10
415.0674558206
 20
26.5559183414
 30
0.0
 11
412.0674558206
 21
26.5559183414
 31
0.0
  0
LINE
  5
207
330
1F
100
AcDbEntity
  8
0
  6
Continuous
 62
     7
370
    50
100
AcDbLine
 10
411.0674558206
 20
26.5559183414
 30
0.0
 11
11.0674558206
 21
26.5559183414
 31
0.0
  0
LINE
  5
208
330
1F
100
AcDbEntity
  8
0
  6
Continuous
 62
     7
370
    50
100
AcDbLine
 10
6.8674558206
 20
26.5559183414
 30
0.0
 11
-3.9325441794
 21
26.5559183414
 31
0.0
  0
LINE
  5
209
330
1F
100
AcDbEntity
  8
0
  6
Continuous
 62
     7
370
    50
100
AcDbLine
 10
10.0674558206
 20
26.5559183414
 30
0.0
 11
7.0674558206
 21
26.5559183414
 31
0.0
  0
LINE
  5
20A
330
1F
100
AcDbEntity
  8
0
  6
Continuous
 62
     7
370
    50
100
AcDbLine
 10
11.0674558206
 20
30.7196576875
 30
0.0
 11
411.0674558206
 21
30.7196576875
 31
0.0
  0
LINE
  5
20B
330
1F
100
AcDbEntity
  8
0
  6
Continuous
 62
     7
370
    50
100
AcDbLine
 10
11.0674558206
 20
30.7196576875
 30
0.0
 11
11.0674558206
 21
26.5559183414
 31
0.0
  0
LINE
  5
20C
330
1F
100
AcDbEntity
  8
0
  6
Continuous
 62
     7
370
    50
100
AcDbLine
 10
411.0674558206
 20
30.7196576875
 30
0.0
 11
411.0674558206
 21
26.5559183414
 31
0.0
  0
LINE
  5
20D
330
1F
100
AcDbEntity
  8
0
  6
Continuous
 62
     7
370
    50
100
AcDbLine
 10
452.5674558206
 20
17.5762790065
 30
0.0
 11
452.5674558206
 21
16.0762790065
 31
0.0
  0
LINE
  5
20E
330
1F
100
AcDbEntity
  8
0
  6
Continuous
 62
     7
370
    50
100
AcDbLine
 10
450.5674558206
 20
16.0762790065
 30
0.0
 11
452.5674558206
 21
16.0762790065
 31
0.0
  0
LINE
  5
20F
330
1F
100
AcDbEntity
  8
0
  6
Continuous
 62
     7
370
    50
100
AcDbLine
 10
450.5674558206
 20
17.5762790065
 30
0.0
 11
450.5674558206
 21
16.0762790065
 31
0.0
  0
LINE
  5
210
330
1F
100
AcDbEntity
  8
0
  6
Continuous
 62
     7
370
    50
100
AcDbLine
 10
450.5674558206
 20
17.5762790065
 30
0.0
 11
452.5674558206
 21
17.5762790065
 31
0.0
  0
LINE
  5
211
330
1F
100
AcDbEntity
  8
0
  6
Continuous
 62
     7
370
    50
100
AcDbLine
 10
428.5674558206
 20
16.0762790065
 30
0.0
 11
450.5674558206
 21
16.0762790065
 31
0.0
  0
LINE
  5
212
330
1F
100
AcDbEntity
  8
0
  6
Continuous
 62
     7
370
    50
100
AcDbLine
 10
428.5674558206
 20
17.5762790065
 30
0.0
 11
428.5674558206
 21
16.0762790065
 31
0.0
  0
LINE
  5
213
330
1F
100
AcDbEntity
  8
0
  6
Continuous
 62
     7
370
    50
100
AcDbLine
 10
428.5674558206
 20
17.5762790065
 30
0.0
 11
450.5674558206
 21
17.5762790065
 31
0.0
  0
LINE
  5
214
330
1F
100
AcDbEntity
  8
0
  6
Continuous
 62
     7
370
    50
100
AcDbLine
 10
426.5674558206
 20
17.5762790065
 30
0.0
 11
426.5674558206
 21
16.0762790065
 31
0.0
  0
LINE
  5
215
330
1F
100
AcDbEntity
  8
0
  6
Continuous
 62
     7
370
    50
100
AcDbLine
 10
426.5674558206
 20
16.0762790065
 30
0.0
 11
428.5674558206
 21
16.0762790065
 31
0.0
  0
LINE
  5
216
330
1F
100
AcDbEntity
  8
0
  6
Continuous
 62
     7
370
    50
100
AcDbLine
 10
426.5674558206
 20
17.5762790065
 30
0.0
 11
428.5674558206
 21
17.5762790065
 31
0.0
  0
LINE
  5
217
330
1F
100
AcDbEntity
  8
0
  6
Continuous
 62
     7
370
    50
100
AcDbLine
 10
-3.9325441794
 20
16.0762790065
 30
0.0
 11
-3.9325441794
 21
20.8232641223
 31
0.0
  0
LINE
  5
218
330
1F
100
AcDbEntity
  8
0
  6
Continuous
 62
     7
370
    50
100
AcDbLine
 10
426.0674558206
 20
20.8232641223
 30
0.0
 11
-3.9325441794
 21
20.8232641223
 31
0.0
  0
LINE
  5
219
330
1F
100
AcDbEntity
  8
0
  6
Continuous
 62
     7
370
    50
100
AcDbLine
 10
426.0674558206
 20
16.0762790065
 30
0.0
 11
426.0674558206
 21
20.8232641223
 31
0.0
  0
LINE
  5
21A
330
1F
100
AcDbEntity
  8
0
  6
Continuous
 62
     7
370
    50
100
AcDbLine
 10
426.0674558206
 20
16.0762790065
 30
0.0
 11
-3.9325441794
 21
16.0762790065
 31
0.0
  0
LINE
  5
21B
330
1F
100
AcDbEntity
  8
0
  6
Continuous
 62
     7
370
    50
100
AcDbLine
 10
-30.4325441794
 20
17.5762790065
 30
0.0
 11
-30.4325441794
 21
16.0762790065
 31
0.0
  0
LINE
  5
21C
330
1F
100
AcDbEntity
  8
0
  6
Continuous
 62
     7
370
    50
100
AcDbLine
 10
-28.4325441794
 20
17.5762790065
 30
0.0
 11
-28.4325441794
 21
16.0762790065
 31
0.0
  0
LINE
  5
21D
330
1F
100
AcDbEntity
  8
0
  6
Continuous
 62
     7
370
    50
100
AcDbLine
 10
-28.4325441794
 20
16.0762790065
 30
0.0
 11
-30.4325441794
 21
16.0762790065
 31
0.0
  0
LINE
  5
21E
330
1F
100
AcDbEntity
  8
0
  6
Continuous
 62
     7
370
    50
100
AcDbLine
 10
-28.4325441794
 20
17.5762790065
 30
0.0
 11
-30.4325441794
 21
17.5762790065
 31
0.0
  0
LINE
  5
21F
330
1F
100
AcDbEntity
  8
0
  6
Continuous
 62
     7
370
    50
100
AcDbLine
 10
-6.4325441794
 20
17.5762790065
 30
0.0
 11
-6.4325441794
 21
16.0762790065
 31
0.0
  0
LINE
  5
220
330
1F
100
AcDbEntity
  8
0
  6
Continuous
 62
     7
370
    50
100
AcDbLine
 10
-6.4325441794
 20
16.0762790065
 30
0.0
 11
-28.4325441794
 21
16.0762790065
 31
0.0
  0
LINE
  5
221
330
1F
100
AcDbEntity
  8
0
  6
Continuous
 62
     7
370
    50
100
AcDbLine
 10
-6.4325441794
 20
17.5762790065
 30
0.0
 11
-28.4325441794
 21
17.5762790065
 31
0.0
  0
LINE
  5
222
330
1F
100
AcDbEntity
  8
0
  6
Continuous
 62
     7
370
    50
100
AcDbLine
 10
-4.4325441794
 20
17.5762790065
 30
0.0
 11
-4.4325441794
 21
16.0762790065
 31
0.0
  0
LINE
  5
223
330
1F
100
AcDbEntity
  8
0
  6
Continuous
 62
     7
370
    50
100
AcDbLine
 10
-4.4325441794
 20
16.0762790065
 30
0.0
 11
-6.4325441794
 21
16.0762790065
 31
0.0
  0
LINE
  5
224
330
1F
100
AcDbEntity
  8
0
  6
Continuous
 62
     7
370
    50
100
AcDbLine
 10
-4.4325441794
 20
17.5762790065
 30
0.0
 11
-6.4325441794
 21
17.5762790065
 31
0.0
  0
LINE
  5
225
330
1F
100
AcDbEntity
  8
0
  6
Continuous
 62
     7
370
    50
100
AcDbLine
 10
-3.9325441794
 20
26.3029034572
 30
0.0
 11
-3.9325441794
 21
20.8232641223
 31
0.0
  0
LINE
  5
226
330
1F
100
AcDbEntity
  8
0
  6
Continuous
 62
     7
370
    50
100
AcDbLine
 10
6.8674558206
 20
26.3029034572
 30
0.0
 11
-3.9325441794
 21
26.3029034572
 31
0.0
  0
LINE
  5
227
330
1F
100
AcDbEntity
  8
0
  6
Continuous
 62
     7
370
    50
100
AcDbLine
 10
7.0674558206
 20
26.3029034572
 30
0.0
 11
6.8674558206
 21
26.3029034572
 31
0.0
  0
LINE
  5
228
330
1F
100
AcDbEntity
  8
0
  6
Continuous
 62
     7
370
    50
100
AcDbLine
 10
10.0674558206
 20
26.3029034572
 30
0.0
 11
7.0674558206
 21
26.3029034572
 31
0.0
  0
LINE
  5
229
330
1F
100
AcDbEntity
  8
0
  6
Continuous
 62
     7
370
    50
100
AcDbLine
 10
11.0674558206
 20
26.3029034572
 30
0.0
 11
10.0674558206
 21
26.3029034572
 31
0.0
  0
LINE
  5
22A
330
1F
100
AcDbEntity
  8
0
  6
Continuous
 62
     7
370
    50
100
AcDbLine
 10
411.0674558206
 20
26.3029034572
 30
0.0
 11
11.0674558206
 21
26.3029034572
 31
0.0
  0
LINE
  5
22B
330
1F
100
AcDbEntity
  8
0
  6
Continuous
 62
     7
370
    50
100
AcDbLine
 10
411.0674558206
 20
26.3029034572
 30
0.0
 11
412.0674558206
 21
26.3029034572
 31
0.0
  0
LINE
  5
22C
330
1F
100
AcDbEntity
  8
0
  6
Continuous
 62
     7
370
    50
100
AcDbLine
 10
412.0674558206
 20
26.3029034572
 30
0.0
 11
415.0674558206
 21
26.3029034572
 31
0.0
  0
LINE
  5
22D
330
1F
100
AcDbEntity
  8
0
  6
Continuous
 62
     7
370
    50
100
AcDbLine
 10
415.0674558206
 20
26.3029034572
 30
0.0
 11
415.2674558206
 21
26.3029034572
 31
0.0
  0
LINE
  5
22E
330
1F
100
AcDbEntity
  8
0
  6
Continuous
 62
     7
370
    50
100
AcDbLine
 10
415.2674558206
 20
26.3029034572
 30
0.0
 11
426.0674558206
 21
26.3029034572
 31
0.0
  0
LINE
  5
22F
330
1F
100
AcDbEntity
  8
0
  6
Continuous
 62
     7
370
    50
100
AcDbLine
 10
426.0674558206
 20
26.3029034572
 30
0.0
 11
426.0674558206
 21
20.8232641223
 31
0.0
  0
LINE
  5
230
330
1F
100
AcDbEntity
  8
0
  6
Continuous
 62
     7
370
    50
100
AcDbLine
 10
426.5674558206
 20
16.0762790065
 30
0.0
 11
426.0674558206
 21
16.0762790065
 31
0.0
  0
LINE
  5
231
330
1F
100
AcDbEntity
  8
0
  6
Continuous
 62
     7
370
    50
100
AcDbLine
 10
426.5674558206
 20
17.5762790065
 30
0.0
 11
426.0674558206
 21
17.5762790065
 31
0.0
  0
LINE
  5
232
330
1F
100
AcDbEntity
  8
0
  6
Continuous
 62
     7
370
    50
100
AcDbLine
 10
-4.4325441794
 20
16.0762790065
 30
0.0
 11
-3.9325441794
 21
16.0762790065
 31
0.0
  0
LINE
  5
233
330
1F
100
AcDbEntity
  8
0
  6
Continuous
 62
     7
370
    50
100
AcDbLine
 10
-4.4325441794
 20
17.5762790065
 30
0.0
 11
-3.9325441794
 21
17.5762790065
 31
0.0
  0
LINE
  5
234
330
1F
100
AcDbEntity
  8
0
  6
Continuous
 62
     7
370
    50
100
AcDbLine
 10
415.2674558206
 20
26.5559183414
 30
0.0
 11
415.2674558206
 21
26.3029034572
 31
0.0
  0
LINE
  5
235
330
1F
100
AcDbEntity
  8
0
  6
Continuous
 62
     7
370
    50
100
AcDbLine
 10
426.0674558206
 20
26.3029034572
 30
0.0
 11
426.0674558206
 21
26.5559183414
 31
0.0
  0
LINE
  5
236
330
1F
100
AcDbEntity
  8
0
  6
Continuous
 62
     7
370
    50
100
AcDbLine
 10
412.0674558206
 20
26.5559183414
 30
0.0
 11
412.0674558206
 21
26.3029034572
 31
0.0
  0
LINE
  5
237
330
1F
100
AcDbEntity
  8
0
  6
Continuous
 62
     7
370
    50
100
AcDbLine
 10
415.0674558206
 20
26.3029034572
 30
0.0
 11
415.0674558206
 21
26.5559183414
 31
0.0
  0
LINE
  5
238
330
1F
100
AcDbEntity
  8
0
  6
Continuous
 62
     7
370
    50
100
AcDbLine
 10
411.0674558206
 20
26.3029034572
 30
0.0
 11
411.0674558206
 21
26.5559183414
 31
0.0
  0
LINE
  5
239
330
1F
100
AcDbEntity
  8
0
  6
Continuous
 62
     7
370
    50
100
AcDbLine
 10
11.0674558206
 20
26.3029034572
 30
0.0
 11
11.0674558206
 21
26.5559183414
 31
0.0
  0
LINE
  5
23A
330
1F
100
AcDbEntity
  8
0
  6
Continuous
 62
     7
370
    50
100
AcDbLine
 10
-3.9325441794
 20
26.3029034572
 30
0.0
 11
-3.9325441794
 21
26.5559183414
 31
0.0
  0
LINE
  5
23B
330
1F
100
AcDbEntity
  8
0
  6
Continuous
 62
     7
370
    50
100
AcDbLine
 10
6.8674558206
 20
26.5559183414
 30
0.0
 11
6.8674558206
 21
26.3029034572
 31
0.0
  0
LINE
  5
23C
330
1F
100
AcDbEntity
  8
0
  6
Continuous
 62
     7
370
    50
100
AcDbLine
 10
10.0674558206
 20
26.5559183414
 30
0.0
 11
10.0674558206
 21
26.3029034572
 31
0.0
  0
LINE
  5
23D
330
1F
100
AcDbEntity
  8
0
  6
Continuous
 62
     7
370
    50
100
AcDbLine
 10
7.0674558206
 20
26.3029034572
 30
0.0
 11
7.0674558206
 21
26.5559183414
 31
0.0
  0
ARC
  5
23E
330
1F
100
AcDbEntity
  8
0
  6
Continuous
 62
     7
370
    50
100
AcDbCircle
 10
393.5674558206
 20
36.0762790065
 30
0.0
 40
2.0
100
AcDbArc
 50
0.0
 51
90.0
  0
LINE
  5
23F
330
1F
100
AcDbEntity
  8
0
  6
Continuous
 62
     7
370
    50
100
AcDbLine
 10
395.5674558206
 20
30.7196576875
 30
0.0
 11
395.5674558206
 21
36.0762790065
 31
0.0
  0
LINE
  5
240
330
1F
100
AcDbEntity
  8
0
  6
Continuous
 62
     7
370
    50
100
AcDbLine
 10
26.5674558205
 20
30.7196576875
 30
0.0
 11
26.5674558205
 21
36.0762790065
 31
0.0
  0
ARC
  5
241
330
1F
100
AcDbEntity
  8
0
  6
Continuous
 62
     7
370
    50
100
AcDbCircle
 10
28.5674558205
 20
36.0762790065
 30
0.0
 40
2.000000000000004
100
AcDbArc
 50
90.0
 51
180.0
  0
LINE
  5
242
330
1F
100
AcDbEntity
  8
0
  6
Continuous
 62
     7
370
    50
100
AcDbLine
 10
31.5674558206
 20
38.0762790065
 30
0.0
 11
28.5674558205
 21
38.0762790065
 31
0.0
  0
ARC
  5
243
330
1F
100
AcDbEntity
  8
0
  6
Continuous
 62
     7
370
    50
100
AcDbCircle
 10
31.5674558206
 20
41.0762790065
 30
0.0
 40
3.000000000000005
100
AcDbArc
 50
270.0
 51
75.5224878141
  0
ARC
  5
244
330
1F
100
AcDbEntity
  8
0
  6
Continuous
 62
     7
370
    50
100
AcDbCircle
 10
32.5674558206
 20
44.9492623527
 30
0.0
 40
0.999999999999997
100
AcDbArc
 50
180.0
 51
255.5224878141
  0
LINE
  5
245
330
1F
100
AcDbEntity
  8
0
  6
Continuous
 62
     7
370
    50
100
AcDbLine
 10
31.5674558206
 20
50.0762790065
 30
0.0
 11
31.5674558206
 21
44.9492623527
 31
0.0
  0
ARC
  5
246
330
1F
100
AcDbEntity
  8
0
  6
Continuous
 62
     7
370
    50
100
AcDbCircle
 10
33.5674558206
 20
50.0762790065
 30
0.0
 40
2.000000000000004
100
AcDbArc
 50
90.0
 51
180.0
  0
LINE
  5
247
330
1F
100
AcDbEntity
  8
0
  6
Continuous
 62
     7
370
    50
100
AcDbLine
 10
38.5674558206
 20
52.0762790065
 30
0.0
 11
33.5674558206
 21
52.0762790065
 31
0.0
  0
ARC
  5
248
330
1F
100
AcDbEntity
  8
0
  6
Continuous
 62
     7
370
    50
100
AcDbCircle
 10
38.5674558206
 20
50.0762790065
 30
0.0
 40
2.000000000000007
100
AcDbArc
 50
0.0
 51
90.0
  0
LINE
  5
249
330
1F
100
AcDbEntity
  8
0
  6
Continuous
 62
     7
370
    50
100
AcDbLine
 10
40.5674558206
 20
44.9492623527
 30
0.0
 11
40.5674558206
 21
50.0762790065
 31
0.0
  0
ARC
  5
24A
330
1F
100
AcDbEntity
  8
0
  6
Continuous
 62
     7
370
    50
100
AcDbCircle
 10
39.5674558206
 20
44.9492623527
 30
0.0
 40
1.000000000000007
100
AcDbArc
 50
284.4775121859
 51
0.0
  0
ARC
  5
24B
330
1F
100
AcDbEntity
  8
0
  6
Continuous
 62
     7
370
    50
100
AcDbCircle
 10
40.5674558206
 20
41.0762790065
 30
0.0
 40
3.0
100
AcDbArc
 50
104.4775121859
 51
270.0
  0
LINE
  5
24C
330
1F
100
AcDbEntity
  8
0
  6
Continuous
 62
     7
370
    50
100
AcDbLine
 10
45.5674558206
 20
38.0762790065
 30
0.0
 11
40.5674558206
 21
38.0762790065
 31
0.0
  0
ARC
  5
24D
330
1F
100
AcDbEntity
  8
0
  6
Continuous
 62
     7
370
    50
100
AcDbCircle
 10
45.5674558206
 20
41.0762790065
 30
0.0
 40
3.000000000000006
100
AcDbArc
 50
270.0
 51
75.5224878141
  0
ARC
  5
24E
330
1F
100
AcDbEntity
  8
0
  6
Continuous
 62
     7
370
    50
100
AcDbCircle
 10
46.5674558206
 20
44.9492623527
 30
0.0
 40
1.0
100
AcDbArc
 50
180.0
 51
255.5224878141
  0
LINE
  5
24F
330
1F
100
AcDbEntity
  8
0
  6
Continuous
 62
     7
370
    50
100
AcDbLine
 10
45.5674558206
 20
50.0762790065
 30
0.0
 11
45.5674558206
 21
44.9492623527
 31
0.0
  0
ARC
  5
250
330
1F
100
AcDbEntity
  8
0
  6
Continuous
 62
     7
370
    50
100
AcDbCircle
 10
47.5674558206
 20
50.0762790065
 30
0.0
 40
2.0
100
AcDbArc
 50
90.0
 51
180.0
  0
LINE
  5
251
330
1F
100
AcDbEntity
  8
0
  6
Continuous
 62
     7
370
    50
100
AcDbLine
 10
52.5674558206
 20
52.0762790065
 30
0.0
 11
47.5674558206
 21
52.0762790065
 31
0.0
  0
ARC
  5
252
330
1F
100
AcDbEntity
  8
0
  6
Continuous
 62
     7
370
    50
100
AcDbCircle
 10
52.5674558206
 20
50.0762790065
 30
0.0
 40
2.0
100
AcDbArc
 50
0.0
 51
90.0
  0
LINE
  5
253
330
1F
100
AcDbEntity
  8
0
  6
Continuous
 62
     7
370
    50
100
AcDbLine
 10
54.5674558206
 20
44.9492623527
 30
0.0
 11
54.5674558206
 21
50.0762790065
 31
0.0
  0
ARC
  5
254
330
1F
100
AcDbEntity
  8
0
  6
Continuous
 62
     7
370
    50
100
AcDbCircle
 10
53.5674558206
 20
44.9492623527
 30
0.0
 40
1.000000000000004
100
AcDbArc
 50
284.4775121859
 51
0.0
  0
ARC
  5
255
330
1F
100
AcDbEntity
  8
0
  6
Continuous
 62
     7
370
    50
100
AcDbCircle
 10
54.5674558206
 20
41.0762790065
 30
0.0
 40
2.999999999999999
100
AcDbArc
 50
104.4775121859
 51
270.0
  0
LINE
  5
256
330
1F
100
AcDbEntity
  8
0
  6
Continuous
 62
     7
370
    50
100
AcDbLine
 10
59.5674558206
 20
38.0762790065
 30
0.0
 11
54.5674558206
 21
38.0762790065
 31
0.0
  0
ARC
  5
257
330
1F
100
AcDbEntity
  8
0
  6
Continuous
 62
     7
370
    50
100
AcDbCircle
 10
59.5674558206
 20
41.0762790065
 30
0.0
 40
3.000000000000006
100
AcDbArc
 50
270.0
 51
75.5224878141
  0
ARC
  5
258
330
1F
100
AcDbEntity
  8
0
  6
Continuous
 62
     7
370
    50
100
AcDbCircle
 10
60.5674558206
 20
44.9492623527
 30
0.0
 40
1.0
100
AcDbArc
 50
180.0
 51
255.5224878141
  0
LINE
  5
259
330
1F
100
AcDbEntity
  8
0
  6
Continuous
 62
     7
370
    50
100
AcDbLine
 10
59.5674558206
 20
50.0762790065
 30
0.0
 11
59.5674558206
 21
44.9492623527
 31
0.0
  0
ARC
  5
25A
330
1F
100
AcDbEntity
  8
0
  6
Continuous
 62
     7
370
    50
100
AcDbCircle
 10
61.5674558206
 20
50.0762790065
 30
0.0
 40
2.0
100
AcDbArc
 50
90.0
 51
180.0
  0
LINE
  5
25B
330
1F
100
AcDbEntity
  8
0
  6
Continuous
 62
     7
370
    50
100
AcDbLine
 10
66.5674558206
 20
52.0762790065
 30
0.0
 11
61.5674558206
 21
52.0762790065
 31
0.0
  0
ARC
  5
25C
330
1F
100
AcDbEntity
  8
0
  6
Continuous
 62
     7
370
    50
100
AcDbCircle
 10
66.5674558206
 20
50.0762790065
 30
0.0
 40
2.000000000000014
100
AcDbArc
 50
0.0
 51
90.0
  0
LINE
  5
25D
330
1F
100
AcDbEntity
  8
0
  6
Continuous
 62
     7
370
    50
100
AcDbLine
 10
68.5674558206
 20
44.9492623527
 30
0.0
 11
68.5674558206
 21
50.0762790065
 31
0.0
  0
ARC
  5
25E
330
1F
100
AcDbEntity
  8
0
  6
Continuous
 62
     7
370
    50
100
AcDbCircle
 10
67.5674558206
 20
44.9492623527
 30
0.0
 40
1.000000000000014
100
AcDbArc
 50
284.4775121859
 51
0.0
  0
ARC
  5
25F
330
1F
100
AcDbEntity
  8
0
  6
Continuous
 62
     7
370
    50
100
AcDbCircle
 10
68.5674558206
 20
41.0762790065
 30
0.0
 40
3.000000000000002
100
AcDbArc
 50
104.4775121859
 51
270.0
  0
LINE
  5
260
330
1F
100
AcDbEntity
  8
0
  6
Continuous
 62
     7
370
    50
100
AcDbLine
 10
73.5674558206
 20
38.0762790065
 30
0.0
 11
68.5674558206
 21
38.0762790065
 31
0.0
  0
ARC
  5
261
330
1F
100
AcDbEntity
  8
0
  6
Continuous
 62
     7
370
    50
100
AcDbCircle
 10
73.5674558206
 20
41.0762790065
 30
0.0
 40
3.000000000000006
100
AcDbArc
 50
270.0
 51
75.5224878141
  0
ARC
  5
262
330
1F
100
AcDbEntity
  8
0
  6
Continuous
 62
     7
370
    50
100
AcDbCircle
 10
74.5674558206
 20
44.9492623527
 30
0.0
 40
1.0
100
AcDbArc
 50
180.0
 51
255.5224878141
  0
LINE
  5
263
330
1F
100
AcDbEntity
  8
0
  6
Continuous
 62
     7
370
    50
100
AcDbLine
 10
73.5674558206
 20
50.0762790065
 30
0.0
 11
73.5674558206
 21
44.9492623527
 31
0.0
  0
ARC
  5
264
330
1F
100
AcDbEntity
  8
0
  6
Continuous
 62
     7
370
    50
100
AcDbCircle
 10
75.5674558206
 20
50.0762790065
 30
0.0
 40
2.0
100
AcDbArc
 50
90.0
 51
180.0
  0
LINE
  5
265
330
1F
100
AcDbEntity
  8
0
  6
Continuous
 62
     7
370
    50
100
AcDbLine
 10
80.5674558206
 20
52.0762790065
 30
0.0
 11
75.5674558206
 21
52.0762790065
 31
0.0
  0
ARC
  5
266
330
1F
100
AcDbEntity
  8
0
  6
Continuous
 62
     7
370
    50
100
AcDbCircle
 10
80.5674558206
 20
50.0762790065
 30
0.0
 40
2.0
100
AcDbArc
 50
0.0
 51
90.0
  0
LINE
  5
267
330
1F
100
AcDbEntity
  8
0
  6
Continuous
 62
     7
370
    50
100
AcDbLine
 10
82.5674558206
 20
44.9492623527
 30
0.0
 11
82.5674558206
 21
50.0762790065
 31
0.0
  0
ARC
  5
268
330
1F
100
AcDbEntity
  8
0
  6
Continuous
 62
     7
370
    50
100
AcDbCircle
 10
81.5674558206
 20
44.9492623527
 30
0.0
 40
1.000000000000004
100
AcDbArc
 50
284.4775121859
 51
0.0
  0
ARC
  5
269
330
1F
100
AcDbEntity
  8
0
  6
Continuous
 62
     7
370
    50
100
AcDbCircle
 10
82.5674558206
 20
41.0762790065
 30
0.0
 40
2.999999999999999
100
AcDbArc
 50
104.4775121859
 51
270.0
  0
LINE
  5
26A
330
1F
100
AcDbEntity
  8
0
  6
Continuous
 62
     7
370
    50
100
AcDbLine
 10
87.5674558206
 20
38.0762790065
 30
0.0
 11
82.5674558206
 21
38.0762790065
 31
0.0
  0
ARC
  5
26B
330
1F
100
AcDbEntity
  8
0
  6
Continuous
 62
     7
370
    50
100
AcDbCircle
 10
87.5674558206
 20
41.0762790065
 30
0.0
 40
3.000000000000006
100
AcDbArc
 50
270.0
 51
75.5224878141
  0
ARC
  5
26C
330
1F
100
AcDbEntity
  8
0
  6
Continuous
 62
     7
370
    50
100
AcDbCircle
 10
88.5674558206
 20
44.9492623527
 30
0.0
 40
1.0
100
AcDbArc
 50
180.0
 51
255.5224878141
  0
LINE
  5
26D
330
1F
100
AcDbEntity
  8
0
  6
Continuous
 62
     7
370
    50
100
AcDbLine
 10
87.5674558206
 20
50.0762790065
 30
0.0
 11
87.5674558206
 21
44.9492623527
 31
0.0
  0
ARC
  5
26E
330
1F
100
AcDbEntity
  8
0
  6
Continuous
 62
     7
370
    50
100
AcDbCircle
 10
89.5674558206
 20
50.0762790065
 30
0.0
 40
2.0
100
AcDbArc
 50
90.0
 51
180.0
  0
LINE
  5
26F
330
1F
100
AcDbEntity
  8
0
  6
Continuous
 62
     7
370
    50
100
AcDbLine
 10
94.5674558206
 20
52.0762790065
 30
0.0
 11
89.5674558206
 21
52.0762790065
 31
0.0
  0
ARC
  5
270
330
1F
100
AcDbEntity
  8
0
  6
Continuous
 62
     7
370
    50
100
AcDbCircle
 10
94.5674558206
 20
50.0762790065
 30
0.0
 40
2.0
100
AcDbArc
 50
0.0
 51
90.0
  0
LINE
  5
271
330
1F
100
AcDbEntity
  8
0
  6
Continuous
 62
     7
370
    50
100
AcDbLine
 10
96.5674558206
 20
44.9492623527
 30
0.0
 11
96.5674558206
 21
50.0762790065
 31
0.0
  0
ARC
  5
272
330
1F
100
AcDbEntity
  8
0
  6
Continuous
 62
     7
370
    50
100
AcDbCircle
 10
95.5674558206
 20
44.9492623527
 30
0.0
 40
1.000000000000004
100
AcDbArc
 50
284.4775121859
 51
0.0
  0
ARC
  5
273
330
1F
100
AcDbEntity
  8
0
  6
Continuous
 62
     7
370
    50
100
AcDbCircle
 10
96.5674558206
 20
41.0762790065
 30
0.0
 40
2.999999999999999
100
AcDbArc
 50
104.4775121859
 51
270.0
  0
LINE
  5
274
330
1F
100
AcDbEntity
  8
0
  6
Continuous
 62
     7
370
    50
100
AcDbLine
 10
101.5674558206
 20
38.0762790065
 30
0.0
 11
96.5674558206
 21
38.0762790065
 31
0.0
  0
ARC
  5
275
330
1F
100
AcDbEntity
  8
0
  6
Continuous
 62
     7
370
    50
100
AcDbCircle
 10
101.5674558206
 20
41.0762790065
 30
0.0
 40
3.000000000000006
100
AcDbArc
 50
270.0
 51
75.5224878141
  0
ARC
  5
276
330
1F
100
AcDbEntity
  8
0
  6
Continuous
 62
     7
370
    50
100
AcDbCircle
 10
102.5674558206
 20
44.9492623527
 30
0.0
 40
1.0
100
AcDbArc
 50
180.0
 51
255.5224878141
  0
LINE
  5
277
330
1F
100
AcDbEntity
  8
0
  6
Continuous
 62
     7
370
    50
100
AcDbLine
 10
101.5674558206
 20
50.0762790065
 30
0.0
 11
101.5674558206
 21
44.9492623527
 31
0.0
  0
ARC
  5
278
330
1F
100
AcDbEntity
  8
0
  6
Continuous
 62
     7
370
    50
100
AcDbCircle
 10
103.5674558206
 20
50.0762790065
 30
0.0
 40
2.0
100
AcDbArc
 50
90.0
 51
180.0
  0
LINE
  5
279
330
1F
100
AcDbEntity
  8
0
  6
Continuous
 62
     7
370
    50
100
AcDbLine
 10
108.5674558206
 20
52.0762790065
 30
0.0
 11
103.5674558206
 21
52.0762790065
 31
0.0
  0
ARC
  5
27A
330
1F
100
AcDbEntity
  8
0
  6
Continuous
 62
     7
370
    50
100
AcDbCircle
 10
108.5674558206
 20
50.0762790065
 30
0.0
 40
2.0
100
AcDbArc
 50
0.0
 51
90.0
  0
LINE
  5
27B
330
1F
100
AcDbEntity
  8
0
  6
Continuous
 62
     7
370
    50
100
AcDbLine
 10
110.5674558206
 20
44.9492623527
 30
0.0
 11
110.5674558206
 21
50.0762790065
 31
0.0
  0
ARC
  5
27C
330
1F
100
AcDbEntity
  8
0
  6
Continuous
 62
     7
370
    50
100
AcDbCircle
 10
109.5674558206
 20
44.9492623527
 30
0.0
 40
1.000000000000004
100
AcDbArc
 50
284.4775121859
 51
0.0
  0
ARC
  5
27D
330
1F
100
AcDbEntity
  8
0
  6
Continuous
 62
     7
370
    50
100
AcDbCircle
 10
110.5674558206
 20
41.0762790065
 30
0.0
 40
2.999999999999999
100
AcDbArc
 50
104.4775121859
 51
270.0
  0
LINE
  5
27E
330
1F
100
AcDbEntity
  8
0
  6
Continuous
 62
     7
370
    50
100
AcDbLine
 10
115.5674558206
 20
38.0762790065
 30
0.0
 11
110.5674558206
 21
38.0762790065
 31
0.0
  0
ARC
  5
27F
330
1F
100
AcDbEntity
  8
0
  6
Continuous
 62
     7
370
    50
100
AcDbCircle
 10
115.5674558206
 20
41.0762790065
 30
0.0
 40
3.000000000000006
100
AcDbArc
 50
270.0
 51
75.5224878141
  0
ARC
  5
280
330
1F
100
AcDbEntity
  8
0
  6
Continuous
 62
     7
370
    50
100
AcDbCircle
 10
116.5674558206
 20
44.9492623527
 30
0.0
 40
1.0
100
AcDbArc
 50
180.0
 51
255.5224878141
  0
LINE
  5
281
330
1F
100
AcDbEntity
  8
0
  6
Continuous
 62
     7
370
    50
100
AcDbLine
 10
115.5674558206
 20
50.0762790065
 30
0.0
 11
115.5674558206
 21
44.9492623527
 31
0.0
  0
ARC
  5
282
330
1F
100
AcDbEntity
  8
0
  6
Continuous
 62
     7
370
    50
100
AcDbCircle
 10
117.5674558206
 20
50.0762790065
 30
0.0
 40
2.0
100
AcDbArc
 50
90.0
 51
180.0
  0
LINE
  5
283
330
1F
100
AcDbEntity
  8
0
  6
Continuous
 62
     7
370
    50
100
AcDbLine
 10
122.5674558206
 20
52.0762790065
 30
0.0
 11
117.5674558206
 21
52.0762790065
 31
0.0
  0
ARC
  5
284
330
1F
100
AcDbEntity
  8
0
  6
Continuous
 62
     7
370
    50
100
AcDbCircle
 10
122.5674558206
 20
50.0762790065
 30
0.0
 40
2.0
100
AcDbArc
 50
0.0
 51
90.0
  0
LINE
  5
285
330
1F
100
AcDbEntity
  8
0
  6
Continuous
 62
     7
370
    50
100
AcDbLine
 10
124.5674558206
 20
44.9492623527
 30
0.0
 11
124.5674558206
 21
50.0762790065
 31
0.0
  0
ARC
  5
286
330
1F
100
AcDbEntity
  8
0
  6
Continuous
 62
     7
370
    50
100
AcDbCircle
 10
123.5674558206
 20
44.9492623527
 30
0.0
 40
1.000000000000004
100
AcDbArc
 50
284.4775121859
 51
0.0
  0
ARC
  5
287
330
1F
100
AcDbEntity
  8
0
  6
Continuous
 62
     7
370
    50
100
AcDbCircle
 10
124.5674558206
 20
41.0762790065
 30
0.0
 40
2.999999999999999
100
AcDbArc
 50
104.4775121859
 51
270.0
  0
LINE
  5
288
330
1F
100
AcDbEntity
  8
0
  6
Continuous
 62
     7
370
    50
100
AcDbLine
 10
129.5674558206
 20
38.0762790065
 30
0.0
 11
124.5674558206
 21
38.0762790065
 31
0.0
  0
ARC
  5
289
330
1F
100
AcDbEntity
  8
0
  6
Continuous
 62
     7
370
    50
100
AcDbCircle
 10
129.5674558206
 20
41.0762790065
 30
0.0
 40
3.000000000000006
100
AcDbArc
 50
270.0
 51
75.5224878141
  0
ARC
  5
28A
330
1F
100
AcDbEntity
  8
0
  6
Continuous
 62
     7
370
    50
100
AcDbCircle
 10
130.5674558206
 20
44.9492623527
 30
0.0
 40
1.0
100
AcDbArc
 50
180.0
 51
255.5224878141
  0
LINE
  5
28B
330
1F
100
AcDbEntity
  8
0
  6
Continuous
 62
     7
370
    50
100
AcDbLine
 10
129.5674558206
 20
50.0762790065
 30
0.0
 11
129.5674558206
 21
44.9492623527
 31
0.0
  0
ARC
  5
28C
330
1F
100
AcDbEntity
  8
0
  6
Continuous
 62
     7
370
    50
100
AcDbCircle
 10
131.5674558206
 20
50.0762790065
 30
0.0
 40
2.0
100
AcDbArc
 50
90.0
 51
180.0
  0
LINE
  5
28D
330
1F
100
AcDbEntity
  8
0
  6
Continuous
 62
     7
370
    50
100
AcDbLine
 10
136.5674558206
 20
52.0762790065
 30
0.0
 11
131.5674558206
 21
52.0762790065
 31
0.0
  0
ARC
  5
28E
330
1F
100
AcDbEntity
  8
0
  6
Continuous
 62
     7
370
    50
100
AcDbCircle
 10
136.5674558206
 20
50.0762790065
 30
0.0
 40
2.0
100
AcDbArc
 50
0.0
 51
90.0
  0
LINE
  5
28F
330
1F
100
AcDbEntity
  8
0
  6
Continuous
 62
     7
370
    50
100
AcDbLine
 10
138.5674558206
 20
44.9492623527
 30
0.0
 11
138.5674558206
 21
50.0762790065
 31
0.0
  0
ARC
  5
290
330
1F
100
AcDbEntity
  8
0
  6
Continuous
 62
     7
370
    50
100
AcDbCircle
 10
137.5674558206
 20
44.9492623527
 30
0.0
 40
1.000000000000004
100
AcDbArc
 50
284.4775121859
 51
0.0
  0
ARC
  5
291
330
1F
100
AcDbEntity
  8
0
  6
Continuous
 62
     7
370
    50
100
AcDbCircle
 10
138.5674558206
 20
41.0762790065
 30
0.0
 40
2.999999999999999
100
AcDbArc
 50
104.4775121859
 51
270.0
  0
LINE
  5
292
330
1F
100
AcDbEntity
  8
0
  6
Continuous
 62
     7
370
    50
100
AcDbLine
 10
143.5674558206
 20
38.0762790065
 30
0.0
 11
138.5674558206
 21
38.0762790065
 31
0.0
  0
ARC
  5
293
330
1F
100
AcDbEntity
  8
0
  6
Continuous
 62
     7
370
    50
100
AcDbCircle
 10
143.5674558206
 20
41.0762790065
 30
0.0
 40
3.000000000000006
100
AcDbArc
 50
270.0
 51
75.5224878141
  0
ARC
  5
294
330
1F
100
AcDbEntity
  8
0
  6
Continuous
 62
     7
370
    50
100
AcDbCircle
 10
144.5674558206
 20
44.9492623527
 30
0.0
 40
1.0
100
AcDbArc
 50
180.0
 51
255.5224878141
  0
LINE
  5
295
330
1F
100
AcDbEntity
  8
0
  6
Continuous
 62
     7
370
    50
100
AcDbLine
 10
143.5674558206
 20
50.0762790065
 30
0.0
 11
143.5674558206
 21
44.9492623527
 31
0.0
  0
ARC
  5
296
330
1F
100
AcDbEntity
  8
0
  6
Continuous
 62
     7
370
    50
100
AcDbCircle
 10
145.5674558206
 20
50.0762790065
 30
0.0
 40
2.0
100
AcDbArc
 50
90.0
 51
180.0
  0
LINE
  5
297
330
1F
100
AcDbEntity
  8
0
  6
Continuous
 62
     7
370
    50
100
AcDbLine
 10
150.5674558206
 20
52.0762790065
 30
0.0
 11
145.5674558206
 21
52.0762790065
 31
0.0
  0
ARC
  5
298
330
1F
100
AcDbEntity
  8
0
  6
Continuous
 62
     7
370
    50
100
AcDbCircle
 10
150.5674558206
 20
50.0762790065
 30
0.0
 40
2.0
100
AcDbArc
 50
0.0
 51
90.0
  0
LINE
  5
299
330
1F
100
AcDbEntity
  8
0
  6
Continuous
 62
     7
370
    50
100
AcDbLine
 10
152.5674558206
 20
44.9492623527
 30
0.0
 11
152.5674558206
 21
50.0762790065
 31
0.0
  0
ARC
  5
29A
330
1F
100
AcDbEntity
  8
0
  6
Continuous
 62
     7
370
    50
100
AcDbCircle
 10
151.5674558206
 20
44.9492623527
 30
0.0
 40
1.0
100
AcDbArc
 50
284.4775121859
 51
0.0
  0
ARC
  5
29B
330
1F
100
AcDbEntity
  8
0
  6
Continuous
 62
     7
370
    50
100
AcDbCircle
 10
152.5674558206
 20
41.0762790065
 30
0.0
 40
3.000000000000006
100
AcDbArc
 50
104.4775121859
 51
270.0
  0
LINE
  5
29C
330
1F
100
AcDbEntity
  8
0
  6
Continuous
 62
     7
370
    50
100
AcDbLine
 10
157.5674558206
 20
38.0762790065
 30
0.0
 11
152.5674558206
 21
38.0762790065
 31
0.0
  0
ARC
  5
29D
330
1F
100
AcDbEntity
  8
0
  6
Continuous
 62
     7
370
    50
100
AcDbCircle
 10
157.5674558206
 20
41.0762790065
 30
0.0
 40
3.000000000000006
100
AcDbArc
 50
270.0
 51
75.5224878141
  0
ARC
  5
29E
330
1F
100
AcDbEntity
  8
0
  6
Continuous
 62
     7
370
    50
100
AcDbCircle
 10
158.5674558206
 20
44.9492623527
 30
0.0
 40
1.0
100
AcDbArc
 50
180.0
 51
255.5224878141
  0
LINE
  5
29F
330
1F
100
AcDbEntity
  8
0
  6
Continuous
 62
     7
370
    50
100
AcDbLine
 10
157.5674558206
 20
50.0762790065
 30
0.0
 11
157.5674558206
 21
44.9492623527
 31
0.0
  0
ARC
  5
2A0
330
1F
100
AcDbEntity
  8
0
  6
Continuous
 62
     7
370
    50
100
AcDbCircle
 10
159.5674558206
 20
50.0762790065
 30
0.0
 40
2.0
100
AcDbArc
 50
90.0
 51
180.0
  0
LINE
  5
2A1
330
1F
100
AcDbEntity
  8
0
  6
Continuous
 62
     7
370
    50
100
AcDbLine
 10
164.5674558206
 20
52.0762790065
 30
0.0
 11
159.5674558206
 21
52.0762790065
 31
0.0
  0
ARC
  5
2A2
330
1F
100
AcDbEntity
  8
0
  6
Continuous
 62
     7
370
    50
100
AcDbCircle
 10
164.5674558206
 20
50.0762790065
 30
0.0
 40
2.0
100
AcDbArc
 50
0.0
 51
90.0
  0
LINE
  5
2A3
330
1F
100
AcDbEntity
  8
0
  6
Continuous
 62
     7
370
    50
100
AcDbLine
 10
166.5674558206
 20
44.9492623527
 30
0.0
 11
166.5674558206
 21
50.0762790065
 31
0.0
  0
ARC
  5
2A4
330
1F
100
AcDbEntity
  8
0
  6
Continuous
 62
     7
370
    50
100
AcDbCircle
 10
165.5674558206
 20
44.9492623527
 30
0.0
 40
1.000000000000004
100
AcDbArc
 50
284.4775121859
 51
0.0
  0
ARC
  5
2A5
330
1F
100
AcDbEntity
  8
0
  6
Continuous
 62
     7
370
    50
100
AcDbCircle
 10
166.5674558206
 20
41.0762790065
 30
0.0
 40
2.999999999999999
100
AcDbArc
 50
104.4775121859
 51
270.0
  0
LINE
  5
2A6
330
1F
100
AcDbEntity
  8
0
  6
Continuous
 62
     7
370
    50
100
AcDbLine
 10
171.5674558206
 20
38.0762790065
 30
0.0
 11
166.5674558206
 21
38.0762790065
 31
0.0
  0
ARC
  5
2A7
330
1F
100
AcDbEntity
  8
0
  6
Continuous
 62
     7
370
    50
100
AcDbCircle
 10
171.5674558206
 20
41.0762790065
 30
0.0
 40
3.000000000000006
100
AcDbArc
 50
270.0
 51
75.5224878141
  0
ARC
  5
2A8
330
1F
100
AcDbEntity
  8
0
  6
Continuous
 62
     7
370
    50
100
AcDbCircle
 10
172.5674558206
 20
44.9492623527
 30
0.0
 40
1.0
100
AcDbArc
 50
180.0
 51
255.5224878141
  0
LINE
  5
2A9
330
1F
100
AcDbEntity
  8
0
  6
Continuous
 62
     7
370
    50
100
AcDbLine
 10
171.5674558206
 20
50.0762790065
 30
0.0
 11
171.5674558206
 21
44.9492623527
 31
0.0
  0
ARC
  5
2AA
330
1F
100
AcDbEntity
  8
0
  6
Continuous
 62
     7
370
    50
100
AcDbCircle
 10
173.5674558206
 20
50.0762790065
 30
0.0
 40
2.0
100
AcDbArc
 50
90.0
 51
180.0
  0
LINE
  5
2AB
330
1F
100
AcDbEntity
  8
0
  6
Continuous
 62
     7
370
    50
100
AcDbLine
 10
178.5674558206
 20
52.0762790065
 30
0.0
 11
173.5674558206
 21
52.0762790065
 31
0.0
  0
ARC
  5
2AC
330
1F
100
AcDbEntity
  8
0
  6
Continuous
 62
     7
370
    50
100
AcDbCircle
 10
178.5674558206
 20
50.0762790065
 30
0.0
 40
2.0
100
AcDbArc
 50
0.0
 51
90.0
  0
LINE
  5
2AD
330
1F
100
AcDbEntity
  8
0
  6
Continuous
 62
     7
370
    50
100
AcDbLine
 10
180.5674558206
 20
44.9492623527
 30
0.0
 11
180.5674558206
 21
50.0762790065
 31
0.0
  0
ARC
  5
2AE
330
1F
100
AcDbEntity
  8
0
  6
Continuous
 62
     7
370
    50
100
AcDbCircle
 10
179.5674558206
 20
44.9492623527
 30
0.0
 40
1.000000000000004
100
AcDbArc
 50
284.4775121859
 51
0.0
  0
ARC
  5
2AF
330
1F
100
AcDbEntity
  8
0
  6
Continuous
 62
     7
370
    50
100
AcDbCircle
 10
180.5674558206
 20
41.0762790065
 30
0.0
 40
2.999999999999999
100
AcDbArc
 50
104.4775121859
 51
270.0
  0
LINE
  5
2B0
330
1F
100
AcDbEntity
  8
0
  6
Continuous
 62
     7
370
    50
100
AcDbLine
 10
185.5674558206
 20
38.0762790065
 30
0.0
 11
180.5674558206
 21
38.0762790065
 31
0.0
  0
ARC
  5
2B1
330
1F
100
AcDbEntity
  8
0
  6
Continuous
 62
     7
370
    50
100
AcDbCircle
 10
185.5674558206
 20
41.0762790065
 30
0.0
 40
3.000000000000006
100
AcDbArc
 50
270.0
 51
75.5224878141
  0
ARC
  5
2B2
330
1F
100
AcDbEntity
  8
0
  6
Continuous
 62
     7
370
    50
100
AcDbCircle
 10
186.5674558206
 20
44.9492623527
 30
0.0
 40
1.0
100
AcDbArc
 50
180.0
 51
255.5224878141
  0
LINE
  5
2B3
330
1F
100
AcDbEntity
  8
0
  6
Continuous
 62
     7
370
    50
100
AcDbLine
 10
185.5674558206
 20
50.0762790065
 30
0.0
 11
185.5674558206
 21
44.9492623527
 31
0.0
  0
ARC
  5
2B4
330
1F
100
AcDbEntity
  8
0
  6
Continuous
 62
     7
370
    50
100
AcDbCircle
 10
187.5674558206
 20
50.0762790065
 30
0.0
 40
2.0
100
AcDbArc
 50
90.0
 51
180.0
  0
LINE
  5
2B5
330
1F
100
AcDbEntity
  8
0
  6
Continuous
 62
     7
370
    50
100
AcDbLine
 10
192.5674558206
 20
52.0762790065
 30
0.0
 11
187.5674558206
 21
52.0762790065
 31
0.0
  0
ARC
  5
2B6
330
1F
100
AcDbEntity
  8
0
  6
Continuous
 62
     7
370
    50
100
AcDbCircle
 10
192.5674558206
 20
50.0762790065
 30
0.0
 40
2.0
100
AcDbArc
 50
0.0
 51
90.0
  0
LINE
  5
2B7
330
1F
100
AcDbEntity
  8
0
  6
Continuous
 62
     7
370
    50
100
AcDbLine
 10
194.5674558206
 20
44.9492623527
 30
0.0
 11
194.5674558206
 21
50.0762790065
 31
0.0
  0
ARC
  5
2B8
330
1F
100
AcDbEntity
  8
0
  6
Continuous
 62
     7
370
    50
100
AcDbCircle
 10
193.5674558206
 20
44.9492623527
 30
0.0
 40
1.000000000000004
100
AcDbArc
 50
284.4775121859
 51
0.0
  0
ARC
  5
2B9
330
1F
100
AcDbEntity
  8
0
  6
Continuous
 62
     7
370
    50
100
AcDbCircle
 10
194.5674558206
 20
41.0762790065
 30
0.0
 40
2.999999999999999
100
AcDbArc
 50
104.4775121859
 51
270.0
  0
LINE
  5
2BA
330
1F
100
AcDbEntity
  8
0
  6
Continuous
 62
     7
370
    50
100
AcDbLine
 10
199.5674558206
 20
38.0762790065
 30
0.0
 11
194.5674558206
 21
38.0762790065
 31
0.0
  0
ARC
  5
2BB
330
1F
100
AcDbEntity
  8
0
  6
Continuous
 62
     7
370
    50
100
AcDbCircle
 10
199.5674558206
 20
41.0762790065
 30
0.0
 40
3.000000000000006
100
AcDbArc
 50
270.0
 51
75.5224878141
  0
ARC
  5
2BC
330
1F
100
AcDbEntity
  8
0
  6
Continuous
 62
     7
370
    50
100
AcDbCircle
 10
200.5674558206
 20
44.9492623527
 30
0.0
 40
1.0
100
AcDbArc
 50
180.0
 51
255.5224878141
  0
LINE
  5
2BD
330
1F
100
AcDbEntity
  8
0
  6
Continuous
 62
     7
370
    50
100
AcDbLine
 10
199.5674558206
 20
50.0762790065
 30
0.0
 11
199.5674558206
 21
44.9492623527
 31
0.0
  0
ARC
  5
2BE
330
1F
100
AcDbEntity
  8
0
  6
Continuous
 62
     7
370
    50
100
AcDbCircle
 10
201.5674558206
 20
50.0762790065
 30
0.0
 40
2.0
100
AcDbArc
 50
90.0
 51
180.0
  0
LINE
  5
2BF
330
1F
100
AcDbEntity
  8
0
  6
Continuous
 62
     7
370
    50
100
AcDbLine
 10
206.5674558206
 20
52.0762790065
 30
0.0
 11
201.5674558206
 21
52.0762790065
 31
0.0
  0
ARC
  5
2C0
330
1F
100
AcDbEntity
  8
0
  6
Continuous
 62
     7
370
    50
100
AcDbCircle
 10
206.5674558206
 20
50.0762790065
 30
0.0
 40
2.0
100
AcDbArc
 50
0.0
 51
90.0
  0
LINE
  5
2C1
330
1F
100
AcDbEntity
  8
0
  6
Continuous
 62
     7
370
    50
100
AcDbLine
 10
208.5674558206
 20
44.9492623527
 30
0.0
 11
208.5674558206
 21
50.0762790065
 31
0.0
  0
ARC
  5
2C2
330
1F
100
AcDbEntity
  8
0
  6
Continuous
 62
     7
370
    50
100
AcDbCircle
 10
207.5674558206
 20
44.9492623527
 30
0.0
 40
1.000000000000004
100
AcDbArc
 50
284.4775121859
 51
0.0
  0
ARC
  5
2C3
330
1F
100
AcDbEntity
  8
0
  6
Continuous
 62
     7
370
    50
100
AcDbCircle
 10
208.5674558206
 20
41.0762790065
 30
0.0
 40
2.999999999999999
100
AcDbArc
 50
104.4775121859
 51
270.0
  0
LINE
  5
2C4
330
1F
100
AcDbEntity
  8
0
  6
Continuous
 62
     7
370
    50
100
AcDbLine
 10
213.5674558206
 20
38.0762790065
 30
0.0
 11
208.5674558206
 21
38.0762790065
 31
0.0
  0
ARC
  5
2C5
330
1F
100
AcDbEntity
  8
0
  6
Continuous
 62
     7
370
    50
100
AcDbCircle
 10
213.5674558206
 20
41.0762790065
 30
0.0
 40
3.000000000000006
100
AcDbArc
 50
270.0
 51
75.5224878141
  0
ARC
  5
2C6
330
1F
100
AcDbEntity
  8
0
  6
Continuous
 62
     7
370
    50
100
AcDbCircle
 10
214.5674558206
 20
44.9492623527
 30
0.0
 40
1.0
100
AcDbArc
 50
180.0
 51
255.5224878141
  0
LINE
  5
2C7
330
1F
100
AcDbEntity
  8
0
  6
Continuous
 62
     7
370
    50
100
AcDbLine
 10
213.5674558206
 20
50.0762790065
 30
0.0
 11
213.5674558206
 21
44.9492623527
 31
0.0
  0
ARC
  5
2C8
330
1F
100
AcDbEntity
  8
0
  6
Continuous
 62
     7
370
    50
100
AcDbCircle
 10
215.5674558206
 20
50.0762790065
 30
0.0
 40
2.0
100
AcDbArc
 50
90.0
 51
180.0
  0
LINE
  5
2C9
330
1F
100
AcDbEntity
  8
0
  6
Continuous
 62
     7
370
    50
100
AcDbLine
 10
220.5674558206
 20
52.0762790065
 30
0.0
 11
215.5674558206
 21
52.0762790065
 31
0.0
  0
ARC
  5
2CA
330
1F
100
AcDbEntity
  8
0
  6
Continuous
 62
     7
370
    50
100
AcDbCircle
 10
220.5674558206
 20
50.0762790065
 30
0.0
 40
2.0
100
AcDbArc
 50
0.0
 51
90.0
  0
LINE
  5
2CB
330
1F
100
AcDbEntity
  8
0
  6
Continuous
 62
     7
370
    50
100
AcDbLine
 10
222.5674558206
 20
44.9492623527
 30
0.0
 11
222.5674558206
 21
50.0762790065
 31
0.0
  0
ARC
  5
2CC
330
1F
100
AcDbEntity
  8
0
  6
Continuous
 62
     7
370
    50
100
AcDbCircle
 10
221.5674558206
 20
44.9492623527
 30
0.0
 40
1.000000000000004
100
AcDbArc
 50
284.4775121859
 51
0.0
  0
ARC
  5
2CD
330
1F
100
AcDbEntity
  8
0
  6
Continuous
 62
     7
370
    50
100
AcDbCircle
 10
222.5674558206
 20
41.0762790065
 30
0.0
 40
2.999999999999999
100
AcDbArc
 50
104.4775121859
 51
270.0
  0
LINE
  5
2CE
330
1F
100
AcDbEntity
  8
0
  6
Continuous
 62
     7
370
    50
100
AcDbLine
 10
227.5674558206
 20
38.0762790065
 30
0.0
 11
222.5674558206
 21
38.0762790065
 31
0.0
  0
ARC
  5
2CF
330
1F
100
AcDbEntity
  8
0
  6
Continuous
 62
     7
370
    50
100
AcDbCircle
 10
227.5674558206
 20
41.0762790065
 30
0.0
 40
3.000000000000006
100
AcDbArc
 50
270.0
 51
75.5224878141
  0
ARC
  5
2D0
330
1F
100
AcDbEntity
  8
0
  6
Continuous
 62
     7
370
    50
100
AcDbCircle
 10
228.5674558206
 20
44.9492623527
 30
0.0
 40
1.0
100
AcDbArc
 50
180.0
 51
255.5224878141
  0
LINE
  5
2D1
330
1F
100
AcDbEntity
  8
0
  6
Continuous
 62
     7
370
    50
100
AcDbLine
 10
227.5674558206
 20
50.0762790065
 30
0.0
 11
227.5674558206
 21
44.9492623527
 31
0.0
  0
ARC
  5
2D2
330
1F
100
AcDbEntity
  8
0
  6
Continuous
 62
     7
370
    50
100
AcDbCircle
 10
229.5674558206
 20
50.0762790065
 30
0.0
 40
2.0
100
AcDbArc
 50
90.0
 51
180.0
  0
LINE
  5
2D3
330
1F
100
AcDbEntity
  8
0
  6
Continuous
 62
     7
370
    50
100
AcDbLine
 10
234.5674558206
 20
52.0762790065
 30
0.0
 11
229.5674558206
 21
52.0762790065
 31
0.0
  0
ARC
  5
2D4
330
1F
100
AcDbEntity
  8
0
  6
Continuous
 62
     7
370
    50
100
AcDbCircle
 10
234.5674558206
 20
50.0762790065
 30
0.0
 40
2.0
100
AcDbArc
 50
0.0
 51
90.0
  0
LINE
  5
2D5
330
1F
100
AcDbEntity
  8
0
  6
Continuous
 62
     7
370
    50
100
AcDbLine
 10
236.5674558206
 20
44.9492623527
 30
0.0
 11
236.5674558206
 21
50.0762790065
 31
0.0
  0
ARC
  5
2D6
330
1F
100
AcDbEntity
  8
0
  6
Continuous
 62
     7
370
    50
100
AcDbCircle
 10
235.5674558206
 20
44.9492623527
 30
0.0
 40
1.000000000000004
100
AcDbArc
 50
284.4775121859
 51
0.0
  0
ARC
  5
2D7
330
1F
100
AcDbEntity
  8
0
  6
Continuous
 62
     7
370
    50
100
AcDbCircle
 10
236.5674558206
 20
41.0762790065
 30
0.0
 40
2.999999999999999
100
AcDbArc
 50
104.4775121859
 51
270.0
  0
LINE
  5
2D8
330
1F
100
AcDbEntity
  8
0
  6
Continuous
 62
     7
370
    50
100
AcDbLine
 10
241.5674558206
 20
38.0762790065
 30
0.0
 11
236.5674558206
 21
38.0762790065
 31
0.0
  0
ARC
  5
2D9
330
1F
100
AcDbEntity
  8
0
  6
Continuous
 62
     7
370
    50
100
AcDbCircle
 10
241.5674558206
 20
41.0762790065
 30
0.0
 40
3.000000000000006
100
AcDbArc
 50
270.0
 51
75.5224878141
  0
ARC
  5
2DA
330
1F
100
AcDbEntity
  8
0
  6
Continuous
 62
     7
370
    50
100
AcDbCircle
 10
242.5674558206
 20
44.9492623527
 30
0.0
 40
1.0
100
AcDbArc
 50
180.0
 51
255.5224878141
  0
LINE
  5
2DB
330
1F
100
AcDbEntity
  8
0
  6
Continuous
 62
     7
370
    50
100
AcDbLine
 10
241.5674558206
 20
50.0762790065
 30
0.0
 11
241.5674558206
 21
44.9492623527
 31
0.0
  0
ARC
  5
2DC
330
1F
100
AcDbEntity
  8
0
  6
Continuous
 62
     7
370
    50
100
AcDbCircle
 10
243.5674558206
 20
50.0762790065
 30
0.0
 40
2.0
100
AcDbArc
 50
90.0
 51
180.0
  0
LINE
  5
2DD
330
1F
100
AcDbEntity
  8
0
  6
Continuous
 62
     7
370
    50
100
AcDbLine
 10
248.5674558206
 20
52.0762790065
 30
0.0
 11
243.5674558206
 21
52.0762790065
 31
0.0
  0
ARC
  5
2DE
330
1F
100
AcDbEntity
  8
0
  6
Continuous
 62
     7
370
    50
100
AcDbCircle
 10
248.5674558206
 20
50.0762790065
 30
0.0
 40
2.000000000000028
100
AcDbArc
 50
0.0
 51
90.0
  0
LINE
  5
2DF
330
1F
100
AcDbEntity
  8
0
  6
Continuous
 62
     7
370
    50
100
AcDbLine
 10
250.5674558206
 20
44.9492623527
 30
0.0
 11
250.5674558206
 21
50.0762790065
 31
0.0
  0
ARC
  5
2E0
330
1F
100
AcDbEntity
  8
0
  6
Continuous
 62
     7
370
    50
100
AcDbCircle
 10
249.5674558206
 20
44.9492623527
 30
0.0
 40
1.000000000000028
100
AcDbArc
 50
284.4775121859
 51
0.0
  0
ARC
  5
2E1
330
1F
100
AcDbEntity
  8
0
  6
Continuous
 62
     7
370
    50
100
AcDbCircle
 10
250.5674558206
 20
41.0762790065
 30
0.0
 40
3.000000000000006
100
AcDbArc
 50
104.4775121859
 51
270.0
  0
LINE
  5
2E2
330
1F
100
AcDbEntity
  8
0
  6
Continuous
 62
     7
370
    50
100
AcDbLine
 10
255.5674558206
 20
38.0762790065
 30
0.0
 11
250.5674558206
 21
38.0762790065
 31
0.0
  0
ARC
  5
2E3
330
1F
100
AcDbEntity
  8
0
  6
Continuous
 62
     7
370
    50
100
AcDbCircle
 10
255.5674558206
 20
41.0762790065
 30
0.0
 40
3.000000000000013
100
AcDbArc
 50
270.0
 51
75.5224878141
  0
ARC
  5
2E4
330
1F
100
AcDbEntity
  8
0
  6
Continuous
 62
     7
370
    50
100
AcDbCircle
 10
256.5674558206
 20
44.9492623527
 30
0.0
 40
1.0
100
AcDbArc
 50
180.0
 51
255.5224878141
  0
LINE
  5
2E5
330
1F
100
AcDbEntity
  8
0
  6
Continuous
 62
     7
370
    50
100
AcDbLine
 10
255.5674558206
 20
50.0762790065
 30
0.0
 11
255.5674558206
 21
44.9492623527
 31
0.0
  0
ARC
  5
2E6
330
1F
100
AcDbEntity
  8
0
  6
Continuous
 62
     7
370
    50
100
AcDbCircle
 10
257.5674558206
 20
50.0762790065
 30
0.0
 40
2.0
100
AcDbArc
 50
90.0
 51
180.0
  0
LINE
  5
2E7
330
1F
100
AcDbEntity
  8
0
  6
Continuous
 62
     7
370
    50
100
AcDbLine
 10
262.5674558206
 20
52.0762790065
 30
0.0
 11
257.5674558206
 21
52.0762790065
 31
0.0
  0
ARC
  5
2E8
330
1F
100
AcDbEntity
  8
0
  6
Continuous
 62
     7
370
    50
100
AcDbCircle
 10
262.5674558206
 20
50.0762790065
 30
0.0
 40
2.0
100
AcDbArc
 50
0.0
 51
90.0
  0
LINE
  5
2E9
330
1F
100
AcDbEntity
  8
0
  6
Continuous
 62
     7
370
    50
100
AcDbLine
 10
264.5674558206
 20
44.9492623527
 30
0.0
 11
264.5674558206
 21
50.0762790065
 31
0.0
  0
ARC
  5
2EA
330
1F
100
AcDbEntity
  8
0
  6
Continuous
 62
     7
370
    50
100
AcDbCircle
 10
263.5674558206
 20
44.9492623527
 30
0.0
 40
1.000000000000004
100
AcDbArc
 50
284.4775121859
 51
0.0
  0
ARC
  5
2EB
330
1F
100
AcDbEntity
  8
0
  6
Continuous
 62
     7
370
    50
100
AcDbCircle
 10
264.5674558206
 20
41.0762790065
 30
0.0
 40
2.999999999999999
100
AcDbArc
 50
104.4775121859
 51
270.0
  0
LINE
  5
2EC
330
1F
100
AcDbEntity
  8
0
  6
Continuous
 62
     7
370
    50
100
AcDbLine
 10
269.5674558206
 20
38.0762790065
 30
0.0
 11
264.5674558206
 21
38.0762790065
 31
0.0
  0
ARC
  5
2ED
330
1F
100
AcDbEntity
  8
0
  6
Continuous
 62
     7
370
    50
100
AcDbCircle
 10
269.5674558206
 20
41.0762790065
 30
0.0
 40
3.000000000000013
100
AcDbArc
 50
270.0
 51
75.5224878141
  0
ARC
  5
2EE
330
1F
100
AcDbEntity
  8
0
  6
Continuous
 62
     7
370
    50
100
AcDbCircle
 10
270.5674558206
 20
44.9492623527
 30
0.0
 40
1.0
100
AcDbArc
 50
180.0
 51
255.5224878141
  0
LINE
  5
2EF
330
1F
100
AcDbEntity
  8
0
  6
Continuous
 62
     7
370
    50
100
AcDbLine
 10
269.5674558206
 20
50.0762790065
 30
0.0
 11
269.5674558206
 21
44.9492623527
 31
0.0
  0
ARC
  5
2F0
330
1F
100
AcDbEntity
  8
0
  6
Continuous
 62
     7
370
    50
100
AcDbCircle
 10
271.5674558206
 20
50.0762790065
 30
0.0
 40
2.0
100
AcDbArc
 50
90.0
 51
180.0
  0
LINE
  5
2F1
330
1F
100
AcDbEntity
  8
0
  6
Continuous
 62
     7
370
    50
100
AcDbLine
 10
276.5674558206
 20
52.0762790065
 30
0.0
 11
271.5674558206
 21
52.0762790065
 31
0.0
  0
ARC
  5
2F2
330
1F
100
AcDbEntity
  8
0
  6
Continuous
 62
     7
370
    50
100
AcDbCircle
 10
276.5674558206
 20
50.0762790065
 30
0.0
 40
2.0
100
AcDbArc
 50
0.0
 51
90.0
  0
LINE
  5
2F3
330
1F
100
AcDbEntity
  8
0
  6
Continuous
 62
     7
370
    50
100
AcDbLine
 10
278.5674558206
 20
44.9492623527
 30
0.0
 11
278.5674558206
 21
50.0762790065
 31
0.0
  0
ARC
  5
2F4
330
1F
100
AcDbEntity
  8
0
  6
Continuous
 62
     7
370
    50
100
AcDbCircle
 10
277.5674558206
 20
44.9492623527
 30
0.0
 40
1.000000000000004
100
AcDbArc
 50
284.4775121859
 51
0.0
  0
ARC
  5
2F5
330
1F
100
AcDbEntity
  8
0
  6
Continuous
 62
     7
370
    50
100
AcDbCircle
 10
278.5674558206
 20
41.0762790065
 30
0.0
 40
2.999999999999999
100
AcDbArc
 50
104.4775121859
 51
270.0
  0
LINE
  5
2F6
330
1F
100
AcDbEntity
  8
0
  6
Continuous
 62
     7
370
    50
100
AcDbLine
 10
283.5674558206
 20
38.0762790065
 30
0.0
 11
278.5674558206
 21
38.0762790065
 31
0.0
  0
ARC
  5
2F7
330
1F
100
AcDbEntity
  8
0
  6
Continuous
 62
     7
370
    50
100
AcDbCircle
 10
283.5674558206
 20
41.0762790065
 30
0.0
 40
2.999999999999999
100
AcDbArc
 50
270.0
 51
75.5224878141
  0
ARC
  5
2F8
330
1F
100
AcDbEntity
  8
0
  6
Continuous
 62
     7
370
    50
100
AcDbCircle
 10
284.5674558206
 20
44.9492623527
 30
0.0
 40
1.000000000000004
100
AcDbArc
 50
180.0
 51
255.5224878141
  0
LINE
  5
2F9
330
1F
100
AcDbEntity
  8
0
  6
Continuous
 62
     7
370
    50
100
AcDbLine
 10
283.5674558206
 20
50.0762790065
 30
0.0
 11
283.5674558206
 21
44.9492623527
 31
0.0
  0
ARC
  5
2FA
330
1F
100
AcDbEntity
  8
0
  6
Continuous
 62
     7
370
    50
100
AcDbCircle
 10
285.5674558206
 20
50.0762790065
 30
0.0
 40
2.0
100
AcDbArc
 50
90.0
 51
180.0
  0
LINE
  5
2FB
330
1F
100
AcDbEntity
  8
0
  6
Continuous
 62
     7
370
    50
100
AcDbLine
 10
290.5674558206
 20
52.0762790065
 30
0.0
 11
285.5674558206
 21
52.0762790065
 31
0.0
  0
ARC
  5
2FC
330
1F
100
AcDbEntity
  8
0
  6
Continuous
 62
     7
370
    50
100
AcDbCircle
 10
290.5674558206
 20
50.0762790065
 30
0.0
 40
2.0
100
AcDbArc
 50
0.0
 51
90.0
  0
LINE
  5
2FD
330
1F
100
AcDbEntity
  8
0
  6
Continuous
 62
     7
370
    50
100
AcDbLine
 10
292.5674558206
 20
44.9492623527
 30
0.0
 11
292.5674558206
 21
50.0762790065
 31
0.0
  0
ARC
  5
2FE
330
1F
100
AcDbEntity
  8
0
  6
Continuous
 62
     7
370
    50
100
AcDbCircle
 10
291.5674558206
 20
44.9492623527
 30
0.0
 40
1.000000000000004
100
AcDbArc
 50
284.4775121859
 51
0.0
  0
ARC
  5
2FF
330
1F
100
AcDbEntity
  8
0
  6
Continuous
 62
     7
370
    50
100
AcDbCircle
 10
292.5674558206
 20
41.0762790065
 30
0.0
 40
2.999999999999999
100
AcDbArc
 50
104.4775121859
 51
270.0
  0
LINE
  5
300
330
1F
100
AcDbEntity
  8
0
  6
Continuous
 62
     7
370
    50
100
AcDbLine
 10
297.5674558206
 20
38.0762790065
 30
0.0
 11
292.5674558206
 21
38.0762790065
 31
0.0
  0
ARC
  5
301
330
1F
100
AcDbEntity
  8
0
  6
Continuous
 62
     7
370
    50
100
AcDbCircle
 10
297.5674558206
 20
41.0762790065
 30
0.0
 40
2.999999999999999
100
AcDbArc
 50
270.0
 51
75.5224878141
  0
ARC
  5
302
330
1F
100
AcDbEntity
  8
0
  6
Continuous
 62
     7
370
    50
100
AcDbCircle
 10
298.5674558206
 20
44.9492623527
 30
0.0
 40
1.000000000000004
100
AcDbArc
 50
180.0
 51
255.5224878141
  0
LINE
  5
303
330
1F
100
AcDbEntity
  8
0
  6
Continuous
 62
     7
370
    50
100
AcDbLine
 10
297.5674558206
 20
50.0762790065
 30
0.0
 11
297.5674558206
 21
44.9492623527
 31
0.0
  0
ARC
  5
304
330
1F
100
AcDbEntity
  8
0
  6
Continuous
 62
     7
370
    50
100
AcDbCircle
 10
299.5674558206
 20
50.0762790065
 30
0.0
 40
2.0
100
AcDbArc
 50
90.0
 51
180.0
  0
LINE
  5
305
330
1F
100
AcDbEntity
  8
0
  6
Continuous
 62
     7
370
    50
100
AcDbLine
 10
304.5674558206
 20
52.0762790065
 30
0.0
 11
299.5674558206
 21
52.0762790065
 31
0.0
  0
ARC
  5
306
330
1F
100
AcDbEntity
  8
0
  6
Continuous
 62
     7
370
    50
100
AcDbCircle
 10
304.5674558206
 20
50.0762790065
 30
0.0
 40
2.0
100
AcDbArc
 50
0.0
 51
90.0
  0
LINE
  5
307
330
1F
100
AcDbEntity
  8
0
  6
Continuous
 62
     7
370
    50
100
AcDbLine
 10
306.5674558206
 20
44.9492623527
 30
0.0
 11
306.5674558206
 21
50.0762790065
 31
0.0
  0
ARC
  5
308
330
1F
100
AcDbEntity
  8
0
  6
Continuous
 62
     7
370
    50
100
AcDbCircle
 10
305.5674558206
 20
44.9492623527
 30
0.0
 40
1.000000000000004
100
AcDbArc
 50
284.4775121859
 51
0.0
  0
ARC
  5
309
330
1F
100
AcDbEntity
  8
0
  6
Continuous
 62
     7
370
    50
100
AcDbCircle
 10
306.5674558206
 20
41.0762790065
 30
0.0
 40
2.999999999999999
100
AcDbArc
 50
104.4775121859
 51
270.0
  0
LINE
  5
30A
330
1F
100
AcDbEntity
  8
0
  6
Continuous
 62
     7
370
    50
100
AcDbLine
 10
311.5674558206
 20
38.0762790065
 30
0.0
 11
306.5674558206
 21
38.0762790065
 31
0.0
  0
ARC
  5
30B
330
1F
100
AcDbEntity
  8
0
  6
Continuous
 62
     7
370
    50
100
AcDbCircle
 10
311.5674558206
 20
41.0762790065
 30
0.0
 40
2.999999999999999
100
AcDbArc
 50
270.0
 51
75.5224878141
  0
ARC
  5
30C
330
1F
100
AcDbEntity
  8
0
  6
Continuous
 62
     7
370
    50
100
AcDbCircle
 10
312.5674558206
 20
44.9492623527
 30
0.0
 40
1.000000000000004
100
AcDbArc
 50
180.0
 51
255.5224878141
  0
LINE
  5
30D
330
1F
100
AcDbEntity
  8
0
  6
Continuous
 62
     7
370
    50
100
AcDbLine
 10
311.5674558206
 20
50.0762790065
 30
0.0
 11
311.5674558206
 21
44.9492623527
 31
0.0
  0
ARC
  5
30E
330
1F
100
AcDbEntity
  8
0
  6
Continuous
 62
     7
370
    50
100
AcDbCircle
 10
313.5674558206
 20
50.0762790065
 30
0.0
 40
2.0
100
AcDbArc
 50
90.0
 51
180.0
  0
LINE
  5
30F
330
1F
100
AcDbEntity
  8
0
  6
Continuous
 62
     7
370
    50
100
AcDbLine
 10
318.5674558206
 20
52.0762790065
 30
0.0
 11
313.5674558206
 21
52.0762790065
 31
0.0
  0
ARC
  5
310
330
1F
100
AcDbEntity
  8
0
  6
Continuous
 62
     7
370
    50
100
AcDbCircle
 10
318.5674558206
 20
50.0762790065
 30
0.0
 40
2.0
100
AcDbArc
 50
0.0
 51
90.0
  0
LINE
  5
311
330
1F
100
AcDbEntity
  8
0
  6
Continuous
 62
     7
370
    50
100
AcDbLine
 10
320.5674558206
 20
44.9492623527
 30
0.0
 11
320.5674558206
 21
50.0762790065
 31
0.0
  0
ARC
  5
312
330
1F
100
AcDbEntity
  8
0
  6
Continuous
 62
     7
370
    50
100
AcDbCircle
 10
319.5674558206
 20
44.9492623527
 30
0.0
 40
1.000000000000018
100
AcDbArc
 50
284.4775121859
 51
0.0
  0
ARC
  5
313
330
1F
100
AcDbEntity
  8
0
  6
Continuous
 62
     7
370
    50
100
AcDbCircle
 10
320.5674558206
 20
41.0762790065
 30
0.0
 40
2.999999999999993
100
AcDbArc
 50
104.4775121859
 51
270.0
  0
LINE
  5
314
330
1F
100
AcDbEntity
  8
0
  6
Continuous
 62
     7
370
    50
100
AcDbLine
 10
325.5674558206
 20
38.0762790065
 30
0.0
 11
320.5674558206
 21
38.0762790065
 31
0.0
  0
ARC
  5
315
330
1F
100
AcDbEntity
  8
0
  6
Continuous
 62
     7
370
    50
100
AcDbCircle
 10
325.5674558206
 20
41.0762790065
 30
0.0
 40
3.000000000000013
100
AcDbArc
 50
270.0
 51
75.5224878141
  0
ARC
  5
316
330
1F
100
AcDbEntity
  8
0
  6
Continuous
 62
     7
370
    50
100
AcDbCircle
 10
326.5674558206
 20
44.9492623527
 30
0.0
 40
1.0
100
AcDbArc
 50
180.0
 51
255.5224878141
  0
LINE
  5
317
330
1F
100
AcDbEntity
  8
0
  6
Continuous
 62
     7
370
    50
100
AcDbLine
 10
325.5674558206
 20
50.0762790065
 30
0.0
 11
325.5674558206
 21
44.9492623527
 31
0.0
  0
ARC
  5
318
330
1F
100
AcDbEntity
  8
0
  6
Continuous
 62
     7
370
    50
100
AcDbCircle
 10
327.5674558206
 20
50.0762790065
 30
0.0
 40
2.0
100
AcDbArc
 50
90.0
 51
180.0
  0
LINE
  5
319
330
1F
100
AcDbEntity
  8
0
  6
Continuous
 62
     7
370
    50
100
AcDbLine
 10
332.5674558206
 20
52.0762790065
 30
0.0
 11
327.5674558206
 21
52.0762790065
 31
0.0
  0
ARC
  5
31A
330
1F
100
AcDbEntity
  8
0
  6
Continuous
 62
     7
370
    50
100
AcDbCircle
 10
332.5674558206
 20
50.0762790065
 30
0.0
 40
2.0
100
AcDbArc
 50
0.0
 51
90.0
  0
LINE
  5
31B
330
1F
100
AcDbEntity
  8
0
  6
Continuous
 62
     7
370
    50
100
AcDbLine
 10
334.5674558206
 20
44.9492623527
 30
0.0
 11
334.5674558206
 21
50.0762790065
 31
0.0
  0
ARC
  5
31C
330
1F
100
AcDbEntity
  8
0
  6
Continuous
 62
     7
370
    50
100
AcDbCircle
 10
333.5674558206
 20
44.9492623527
 30
0.0
 40
1.000000000000018
100
AcDbArc
 50
284.4775121859
 51
0.0
  0
ARC
  5
31D
330
1F
100
AcDbEntity
  8
0
  6
Continuous
 62
     7
370
    50
100
AcDbCircle
 10
334.5674558206
 20
41.0762790065
 30
0.0
 40
2.999999999999993
100
AcDbArc
 50
104.4775121859
 51
270.0
  0
LINE
  5
31E
330
1F
100
AcDbEntity
  8
0
  6
Continuous
 62
     7
370
    50
100
AcDbLine
 10
339.5674558206
 20
38.0762790065
 30
0.0
 11
334.5674558206
 21
38.0762790065
 31
0.0
  0
ARC
  5
31F
330
1F
100
AcDbEntity
  8
0
  6
Continuous
 62
     7
370
    50
100
AcDbCircle
 10
339.5674558206
 20
41.0762790065
 30
0.0
 40
3.000000000000013
100
AcDbArc
 50
270.0
 51
75.5224878141
  0
ARC
  5
320
330
1F
100
AcDbEntity
  8
0
  6
Continuous
 62
     7
370
    50
100
AcDbCircle
 10
340.5674558206
 20
44.9492623527
 30
0.0
 40
1.0
100
AcDbArc
 50
180.0
 51
255.5224878141
  0
LINE
  5
321
330
1F
100
AcDbEntity
  8
0
  6
Continuous
 62
     7
370
    50
100
AcDbLine
 10
339.5674558206
 20
50.0762790065
 30
0.0
 11
339.5674558206
 21
44.9492623527
 31
0.0
  0
ARC
  5
322
330
1F
100
AcDbEntity
  8
0
  6
Continuous
 62
     7
370
    50
100
AcDbCircle
 10
341.5674558206
 20
50.0762790065
 30
0.0
 40
2.0
100
AcDbArc
 50
90.0
 51
180.0
  0
LINE
  5
323
330
1F
100
AcDbEntity
  8
0
  6
Continuous
 62
     7
370
    50
100
AcDbLine
 10
346.5674558206
 20
52.0762790065
 30
0.0
 11
341.5674558206
 21
52.0762790065
 31
0.0
  0
ARC
  5
324
330
1F
100
AcDbEntity
  8
0
  6
Continuous
 62
     7
370
    50
100
AcDbCircle
 10
346.5674558206
 20
50.0762790065
 30
0.0
 40
2.0
100
AcDbArc
 50
0.0
 51
90.0
  0
LINE
  5
325
330
1F
100
AcDbEntity
  8
0
  6
Continuous
 62
     7
370
    50
100
AcDbLine
 10
348.5674558206
 20
44.9492623527
 30
0.0
 11
348.5674558206
 21
50.0762790065
 31
0.0
  0
ARC
  5
326
330
1F
100
AcDbEntity
  8
0
  6
Continuous
 62
     7
370
    50
100
AcDbCircle
 10
347.5674558206
 20
44.9492623527
 30
0.0
 40
1.000000000000004
100
AcDbArc
 50
284.4775121859
 51
0.0
  0
ARC
  5
327
330
1F
100
AcDbEntity
  8
0
  6
Continuous
 62
     7
370
    50
100
AcDbCircle
 10
348.5674558206
 20
41.0762790065
 30
0.0
 40
2.999999999999999
100
AcDbArc
 50
104.4775121859
 51
270.0
  0
LINE
  5
328
330
1F
100
AcDbEntity
  8
0
  6
Continuous
 62
     7
370
    50
100
AcDbLine
 10
353.5674558206
 20
38.0762790065
 30
0.0
 11
348.5674558206
 21
38.0762790065
 31
0.0
  0
ARC
  5
329
330
1F
100
AcDbEntity
  8
0
  6
Continuous
 62
     7
370
    50
100
AcDbCircle
 10
353.5674558206
 20
41.0762790065
 30
0.0
 40
2.999999999999999
100
AcDbArc
 50
270.0
 51
75.5224878141
  0
ARC
  5
32A
330
1F
100
AcDbEntity
  8
0
  6
Continuous
 62
     7
370
    50
100
AcDbCircle
 10
354.5674558206
 20
44.9492623527
 30
0.0
 40
1.000000000000004
100
AcDbArc
 50
180.0
 51
255.5224878141
  0
LINE
  5
32B
330
1F
100
AcDbEntity
  8
0
  6
Continuous
 62
     7
370
    50
100
AcDbLine
 10
353.5674558206
 20
50.0762790065
 30
0.0
 11
353.5674558206
 21
44.9492623527
 31
0.0
  0
ARC
  5
32C
330
1F
100
AcDbEntity
  8
0
  6
Continuous
 62
     7
370
    50
100
AcDbCircle
 10
355.5674558206
 20
50.0762790065
 30
0.0
 40
2.0
100
AcDbArc
 50
90.0
 51
180.0
  0
LINE
  5
32D
330
1F
100
AcDbEntity
  8
0
  6
Continuous
 62
     7
370
    50
100
AcDbLine
 10
360.5674558206
 20
52.0762790065
 30
0.0
 11
355.5674558206
 21
52.0762790065
 31
0.0
  0
ARC
  5
32E
330
1F
100
AcDbEntity
  8
0
  6
Continuous
 62
     7
370
    50
100
AcDbCircle
 10
360.5674558206
 20
50.0762790065
 30
0.0
 40
2.0
100
AcDbArc
 50
0.0
 51
90.0
  0
LINE
  5
32F
330
1F
100
AcDbEntity
  8
0
  6
Continuous
 62
     7
370
    50
100
AcDbLine
 10
362.5674558206
 20
44.9492623527
 30
0.0
 11
362.5674558206
 21
50.0762790065
 31
0.0
  0
ARC
  5
330
330
1F
100
AcDbEntity
  8
0
  6
Continuous
 62
     7
370
    50
100
AcDbCircle
 10
361.5674558206
 20
44.9492623527
 30
0.0
 40
1.0
100
AcDbArc
 50
284.4775121859
 51
0.0
  0
ARC
  5
331
330
1F
100
AcDbEntity
  8
0
  6
Continuous
 62
     7
370
    50
100
AcDbCircle
 10
362.5674558206
 20
41.0762790065
 30
0.0
 40
3.000000000000013
100
AcDbArc
 50
104.4775121859
 51
270.0
  0
LINE
  5
332
330
1F
100
AcDbEntity
  8
0
  6
Continuous
 62
     7
370
    50
100
AcDbLine
 10
367.5674558206
 20
38.0762790065
 30
0.0
 11
362.5674558206
 21
38.0762790065
 31
0.0
  0
ARC
  5
333
330
1F
100
AcDbEntity
  8
0
  6
Continuous
 62
     7
370
    50
100
AcDbCircle
 10
367.5674558206
 20
41.0762790065
 30
0.0
 40
2.999999999999999
100
AcDbArc
 50
270.0
 51
75.5224878141
  0
ARC
  5
334
330
1F
100
AcDbEntity
  8
0
  6
Continuous
 62
     7
370
    50
100
AcDbCircle
 10
368.5674558206
 20
44.9492623527
 30
0.0
 40
1.000000000000004
100
AcDbArc
 50
180.0
 51
255.5224878141
  0
LINE
  5
335
330
1F
100
AcDbEntity
  8
0
  6
Continuous
 62
     7
370
    50
100
AcDbLine
 10
367.5674558206
 20
50.0762790065
 30
0.0
 11
367.5674558206
 21
44.9492623527
 31
0.0
  0
ARC
  5
336
330
1F
100
AcDbEntity
  8
0
  6
Continuous
 62
     7
370
    50
100
AcDbCircle
 10
369.5674558206
 20
50.0762790065
 30
0.0
 40
2.0
100
AcDbArc
 50
90.0
 51
180.0
  0
LINE
  5
337
330
1F
100
AcDbEntity
  8
0
  6
Continuous
 62
     7
370
    50
100
AcDbLine
 10
374.5674558206
 20
52.0762790065
 30
0.0
 11
369.5674558206
 21
52.0762790065
 31
0.0
  0
ARC
  5
338
330
1F
100
AcDbEntity
  8
0
  6
Continuous
 62
     7
370
    50
100
AcDbCircle
 10
374.5674558206
 20
50.0762790065
 30
0.0
 40
2.0
100
AcDbArc
 50
0.0
 51
90.0
  0
LINE
  5
339
330
1F
100
AcDbEntity
  8
0
  6
Continuous
 62
     7
370
    50
100
AcDbLine
 10
376.5674558206
 20
44.9492623527
 30
0.0
 11
376.5674558206
 21
50.0762790065
 31
0.0
  0
ARC
  5
33A
330
1F
100
AcDbEntity
  8
0
  6
Continuous
 62
     7
370
    50
100
AcDbCircle
 10
375.5674558206
 20
44.9492623527
 30
0.0
 40
1.000000000000004
100
AcDbArc
 50
284.4775121859
 51
0.0
  0
ARC
  5
33B
330
1F
100
AcDbEntity
  8
0
  6
Continuous
 62
     7
370
    50
100
AcDbCircle
 10
376.5674558206
 20
41.0762790065
 30
0.0
 40
2.999999999999999
100
AcDbArc
 50
104.4775121859
 51
270.0
  0
LINE
  5
33C
330
1F
100
AcDbEntity
  8
0
  6
Continuous
 62
     7
370
    50
100
AcDbLine
 10
381.5674558206
 20
38.0762790065
 30
0.0
 11
376.5674558206
 21
38.0762790065
 31
0.0
  0
ARC
  5
33D
330
1F
100
AcDbEntity
  8
0
  6
Continuous
 62
     7
370
    50
100
AcDbCircle
 10
381.5674558206
 20
41.0762790065
 30
0.0
 40
3.000000000000013
100
AcDbArc
 50
270.0
 51
75.5224878141
  0
ARC
  5
33E
330
1F
100
AcDbEntity
  8
0
  6
Continuous
 62
     7
370
    50
100
AcDbCircle
 10
382.5674558206
 20
44.9492623527
 30
0.0
 40
1.0
100
AcDbArc
 50
180.0
 51
255.5224878141
  0
LINE
  5
33F
330
1F
100
AcDbEntity
  8
0
  6
Continuous
 62
     7
370
    50
100
AcDbLine
 10
381.5674558206
 20
50.0762790065
 30
0.0
 11
381.5674558206
 21
44.9492623527
 31
0.0
  0
ARC
  5
340
330
1F
100
AcDbEntity
  8
0
  6
Continuous
 62
     7
370
    50
100
AcDbCircle
 10
383.5674558206
 20
50.0762790065
 30
0.0
 40
2.0
100
AcDbArc
 50
90.0
 51
180.0
  0
LINE
  5
341
330
1F
100
AcDbEntity
  8
0
  6
Continuous
 62
     7
370
    50
100
AcDbLine
 10
388.5674558206
 20
52.0762790065
 30
0.0
 11
383.5674558206
 21
52.0762790065
 31
0.0
  0
ARC
  5
342
330
1F
100
AcDbEntity
  8
0
  6
Continuous
 62
     7
370
    50
100
AcDbCircle
 10
388.5674558206
 20
50.0762790065
 30
0.0
 40
2.0
100
AcDbArc
 50
0.0
 51
90.0
  0
LINE
  5
343
330
1F
100
AcDbEntity
  8
0
  6
Continuous
 62
     7
370
    50
100
AcDbLine
 10
390.5674558206
 20
44.9492623527
 30
0.0
 11
390.5674558206
 21
50.0762790065
 31
0.0
  0
ARC
  5
344
330
1F
100
AcDbEntity
  8
0
  6
Continuous
 62
     7
370
    50
100
AcDbCircle
 10
389.5674558206
 20
44.9492623527
 30
0.0
 40
1.000000000000004
100
AcDbArc
 50
284.4775121859
 51
0.0
  0
ARC
  5
345
330
1F
100
AcDbEntity
  8
0
  6
Continuous
 62
     7
370
    50
100
AcDbCircle
 10
390.5674558206
 20
41.0762790065
 30
0.0
 40
2.999999999999999
100
AcDbArc
 50
104.4775121859
 51
270.0
  0
LINE
  5
346
330
1F
100
AcDbEntity
  8
0
  6
Continuous
 62
     7
370
    50
100
AcDbLine
 10
393.5674558206
 20
38.0762790065
 30
0.0
 11
390.5674558206
 21
38.0762790065
 31
0.0
  0
ARC
  5
347
330
1F
100
AcDbEntity
  8
0
  6
Continuous
 62
     7
370
    50
100
AcDbCircle
 10
424.0674558206
 20
26.0762790065
 30
0.0
 40
2.000000000000034
100
AcDbArc
 50
13.8758972369
 51
90.0
  0
ARC
  5
348
330
1F
100
AcDbEntity
  8
0
  6
Continuous
 62
     7
370
    50
100
AcDbCircle
 10
-1.9325441794
 20
26.0762790065
 30
0.0
 40
2.000000000000004
100
AcDbArc
 50
90.0
 51
166.1241027631
  0
LINE
  5
349
330
1F
100
AcDbEntity
  8
0
  6
Continuous
 62
     7
370
    50
100
AcDbLine
 10
-1.9325441794
 20
28.0762790065
 30
0.0
 11
11.0674558206
 21
28.0762790065
 31
0.0
  0
LINE
  5
34A
330
1F
100
AcDbEntity
  8
0
  6
Continuous
 62
     7
370
    50
100
AcDbLine
 10
411.0674558206
 20
28.0762790065
 30
0.0
 11
424.0674558206
 21
28.0762790065
 31
0.0
  0
LINE
  5
34B
330
1F
100
AcDbEntity
  8
0
  6
Continuous
 62
     7
370
    50
100
AcDbLine
 10
536.5699351904
 20
176.2847683004
 30
0.0
 11
541.5564660183
 21
175.9180118379
 31
0.0
  0
LINE
  5
34C
330
1F
100
AcDbEntity
  8
0
  6
Continuous
 62
     7
370
    50
100
AcDbLine
 10
541.5564660183
 20
175.9180118379
 30
0.0
 11
542.5242602554
 21
189.0764324587
 31
0.0
  0
LINE
  5
34D
330
1F
100
AcDbEntity
  8
0
  6
Continuous
 62
     7
370
    50
100
AcDbLine
 10
543.1226439548
 20
189.0324216832
 30
0.0
 11
542.5242602554
 21
189.0764324587
 31
0.0
  0
LINE
  5
34E
330
1F
100
AcDbEntity
  8
0
  6
Continuous
 62
     7
370
    50
100
AcDbLine
 10
543.1226439548
 20
189.0324216832
 30
0.0
 11
542.1103961184
 21
175.2695965983
 31
0.0
  0
LINE
  5
34F
330
1F
100
AcDbEntity
  8
0
  6
Continuous
 62
     7
370
    50
100
AcDbLine
 10
537.2390503384
 20
175.6339346012
 30
0.0
 11
537.6715878712
 21
171.3708735751
 31
0.0
  0
LINE
  5
350
330
1F
100
AcDbEntity
  8
0
  6
Continuous
 62
     7
370
    50
100
AcDbLine
 10
540.4300531246
 20
171.1720195115
 30
0.0
 11
541.5037397047
 21
175.3202691613
 31
0.0
  0
LINE
  5
351
330
1F
100
AcDbEntity
  8
0
  6
Continuous
 62
     7
370
    50
100
AcDbLine
 10
542.1103961184
 20
175.2695965983
 30
0.0
 11
541.0109119542
 21
171.0216765035
 31
0.0
  0
LINE
  5
352
330
1F
100
AcDbEntity
  8
0
  6
Continuous
 62
     7
370
    50
100
AcDbLine
 10
537.6715878712
 20
171.3708735751
 30
0.0
 11
537.0746525739
 21
171.3103074891
 31
0.0
  0
LINE
  5
353
330
1F
100
AcDbEntity
  8
0
  6
Continuous
 62
     7
370
    50
100
AcDbLine
 10
537.0746525739
 20
171.3103074891
 30
0.0
 11
536.5699351904
 21
176.2847683004
 31
0.0
  0
LINE
  5
354
330
1F
100
AcDbEntity
  8
0
  6
Continuous
 62
     7
370
    50
100
AcDbLine
 10
541.0109119542
 20
171.0216765035
 30
0.0
 11
540.4300531246
 21
171.1720195115
 31
0.0
  0
LINE
  5
355
330
1F
100
AcDbEntity
  8
0
  6
Continuous
 62
     7
370
    50
100
AcDbLine
 10
541.5037397047
 20
175.3202691613
 30
0.0
 11
537.2390503384
 21
175.6339346012
 31
0.0
  0
LINE
  5
356
330
1F
100
AcDbEntity
  8
0
  6
Continuous
 62
     7
370
    50
100
AcDbLine
 10
540.4300531246
 20
171.1720195115
 30
0.0
 11
540.5817133215
 21
128.0447172284
 31
0.0
  0
LINE
  5
357
330
1F
100
AcDbEntity
  8
0
  6
Continuous
 62
     7
370
    50
100
AcDbLine
 10
540.5817133215
 20
128.0447172284
 30
0.0
 11
530.6086516658
 21
128.7782301533
 31
0.0
  0
LINE
  5
358
330
1F
100
AcDbEntity
  8
0
  6
Continuous
 62
     7
370
    50
100
AcDbLine
 10
530.6086516658
 20
128.7782301533
 30
0.0
 11
537.6715878712
 21
171.3708735751
 31
0.0
  0
LINE
  5
359
330
1F
100
AcDbEntity
  8
0
  6
Continuous
 62
     7
370
    50
100
AcDbLine
 10
545.2520303467
 20
190.6036345421
 30
0.0
 11
545.2520303467
 21
188.6036345421
 31
0.0
  0
LINE
  5
35A
330
1F
100
AcDbEntity
  8
0
  6
Continuous
 62
     7
370
    50
100
AcDbLine
 10
543.7520303467
 20
190.6036345421
 30
0.0
 11
543.7520303467
 21
188.6036345421
 31
0.0
  0
LINE
  5
35B
330
1F
100
AcDbEntity
  8
0
  6
Continuous
 62
     7
370
    50
100
AcDbLine
 10
543.7520303467
 20
190.6036345421
 30
0.0
 11
545.2520303467
 21
190.6036345421
 31
0.0
  0
LINE
  5
35C
330
1F
100
AcDbEntity
  8
0
  6
Continuous
 62
     7
370
    50
100
AcDbLine
 10
545.2520303467
 20
104.6036345421
 30
0.0
 11
545.2520303467
 21
102.6036345421
 31
0.0
  0
LINE
  5
35D
330
1F
100
AcDbEntity
  8
0
  6
Continuous
 62
     7
370
    50
100
AcDbLine
 10
543.7520303467
 20
102.6036345421
 30
0.0
 11
545.2520303467
 21
102.6036345421
 31
0.0
  0
LINE
  5
35E
330
1F
100
AcDbEntity
  8
0
  6
Continuous
 62
     7
370
    50
100
AcDbLine
 10
543.7520303467
 20
104.6036345421
 30
0.0
 11
543.7520303467
 21
102.6036345421
 31
0.0
  0
LINE
  5
35F
330
1F
100
AcDbEntity
  8
0
  6
Continuous
 62
     7
370
    50
100
AcDbLine
 10
545.2520303467
 20
188.6036345421
 30
0.0
 11
545.2520303467
 21
104.6036345421
 31
0.0
  0
LINE
  5
360
330
1F
100
AcDbEntity
  8
0
  6
Continuous
 62
     7
370
    50
100
AcDbLine
 10
543.7520303467
 20
188.6036345421
 30
0.0
 11
543.7520303467
 21
104.6036345421
 31
0.0
  0
LINE
  5
361
330
1F
100
AcDbEntity
  8
0
  6
Continuous
 62
     7
370
    50
100
AcDbLine
 10
533.2520303467
 20
102.6036345421
 30
0.0
 11
533.2520303467
 21
104.1036345421
 31
0.0
  0
LINE
  5
362
330
1F
100
AcDbEntity
  8
0
  6
Continuous
 62
     7
370
    50
100
AcDbLine
 10
535.2520303467
 20
102.6036345421
 30
0.0
 11
533.2520303467
 21
102.6036345421
 31
0.0
  0
LINE
  5
363
330
1F
100
AcDbEntity
  8
0
  6
Continuous
 62
     7
370
    50
100
AcDbLine
 10
533.2520303467
 20
104.1036345421
 30
0.0
 11
535.2520303467
 21
104.1036345421
 31
0.0
  0
ARC
  5
364
330
1F
100
AcDbEntity
  8
0
  6
Continuous
 62
     7
370
    50
100
AcDbCircle
 10
537.2723910119
 20
176.8687089633
 30
0.0
 40
1.000000000000215
100
AcDbArc
 50
154.0
 51
189.0
  0
ARC
  5
365
330
1F
100
AcDbEntity
  8
0
  6
Continuous
 62
     7
370
    50
100
AcDbCircle
 10
537.2723910119
 20
176.8687089633
 30
0.0
 40
2.500000000000143
100
AcDbArc
 50
154.0
 51
189.0
  0
LINE
  5
366
330
1F
100
AcDbEntity
  8
0
  6
Continuous
 62
     7
370
    50
100
AcDbLine
 10
536.630697073
 20
174.5277518204
 30
0.0
 11
536.2847026713
 21
176.7122744983
 31
0.0
  0
LINE
  5
367
330
1F
100
AcDbEntity
  8
0
  6
Continuous
 62
     7
370
    50
100
AcDbLine
 10
535.1491645621
 20
174.2931001229
 30
0.0
 11
534.8031701604
 21
176.4776228007
 31
0.0
  0
LINE
  5
368
330
1F
100
AcDbEntity
  8
0
  6
Continuous
 62
     7
370
    50
100
AcDbLine
 10
536.9435660031
 20
172.5523751392
 30
0.0
 11
535.4620334922
 21
172.3177234417
 31
0.0
  0
LINE
  5
369
330
1F
100
AcDbEntity
  8
0
  6
Continuous
 62
     7
370
    50
100
AcDbLine
 10
535.4620334922
 20
172.3177234417
 30
0.0
 11
535.1491645621
 21
174.2931001229
 31
0.0
  0
LINE
  5
36A
330
1F
100
AcDbEntity
  8
0
  6
Continuous
 62
     7
370
    50
100
AcDbLine
 10
536.630697073
 20
174.5277518204
 30
0.0
 11
536.9435660031
 21
172.5523751392
 31
0.0
  0
ARC
  5
36B
330
1F
100
AcDbEntity
  8
0
  6
Continuous
 62
     7
370
    50
100
AcDbCircle
 10
542.7520303467
 20
188.1036345421
 30
0.0
 40
1.0
100
AcDbArc
 50
0.0
 51
154.0
  0
ARC
  5
36C
330
1F
100
AcDbEntity
  8
0
  6
Continuous
 62
     7
370
    50
100
AcDbCircle
 10
542.7520303467
 20
188.1036345421
 30
0.0
 40
2.500000000000049
100
AcDbArc
 50
66.4218215218
 51
154.0
  0
LINE
  5
36D
330
1F
100
AcDbEntity
  8
0
  6
Continuous
 62
     7
370
    50
100
AcDbLine
 10
542.7520303467
 20
102.6036345421
 30
0.0
 11
535.2520303467
 21
102.6036345421
 31
0.0
  0
LINE
  5
36E
330
1F
100
AcDbEntity
  8
0
  6
Continuous
 62
     7
370
    50
100
AcDbLine
 10
542.7520303467
 20
104.1036345421
 30
0.0
 11
535.2520303467
 21
104.1036345421
 31
0.0
  0
LINE
  5
36F
330
1F
100
AcDbEntity
  8
0
  6
Continuous
 62
     7
370
    50
100
AcDbLine
 10
535.0254058961
 20
177.9646368303
 30
0.0
 11
540.505045231
 21
189.199562409
 31
0.0
  0
LINE
  5
370
330
1F
100
AcDbEntity
  8
0
  6
Continuous
 62
     7
370
    50
100
AcDbLine
 10
536.3735969656
 20
177.3070801101
 30
0.0
 11
541.8532363004
 21
188.5420056888
 31
0.0
  0
ARC
  5
371
330
1F
100
AcDbEntity
  8
0
  6
Continuous
 62
     7
370
    50
100
AcDbCircle
 10
542.7520303467
 20
105.1036345421
 30
0.0
 40
2.5
100
AcDbArc
 50
270.0
 51
293.5781784782
  0
ARC
  5
372
330
1F
100
AcDbEntity
  8
0
  6
Continuous
 62
     7
370
    50
100
AcDbCircle
 10
542.7520303467
 20
105.1036345421
 30
0.0
 40
1.0
100
AcDbArc
 50
270.0
 51
0.0
  0
ARC
  5
373
330
1F
100
AcDbEntity
  8
0
  6
Continuous
 62
     7
370
    50
100
AcDbCircle
 10
542.9370700404
 20
125.5530396993
 30
0.0
 40
0.8392845714172746
100
AcDbArc
 50
13.827936973
 51
67.9588523253
  0
ARC
  5
374
330
1F
100
AcDbEntity
  8
0
  6
Continuous
 62
     7
370
    50
100
AcDbCircle
 10
542.8866268184
 20
174.4479144966
 30
0.0
 40
0.8992196411855807
100
AcDbArc
 50
293.9761451938
 51
344.2370655079
  0
ARC
  5
375
330
1F
100
AcDbEntity
  8
0
  6
Continuous
 62
     7
370
    50
100
AcDbCircle
 10
542.1870322935
 20
169.3554598102
 30
0.0
 40
1.990852927490652
100
AcDbArc
 50
139.233361971
 51
151.7609299322
  0
LINE
  5
376
330
1F
100
AcDbEntity
  8
0
  6
Continuous
 62
     7
370
    50
100
AcDbLine
 10
540.5768388647
 20
129.4308566085
 30
0.0
 11
540.679209264
 21
129.3018227006
 31
0.0
  0
LINE
  5
377
330
1F
100
AcDbEntity
  8
0
  6
Continuous
 62
     7
370
    50
100
AcDbLine
 10
540.679209264
 20
170.6554463835
 30
0.0
 11
540.9990358974
 21
171.0247503693
 31
0.0
  0
LINE
  5
378
330
1F
100
AcDbEntity
  8
0
  6
Continuous
 62
     7
370
    50
100
AcDbLine
 10
541.0171090906
 20
171.0456194951
 30
0.0
 11
543.2520303467
 21
173.6262842729
 31
0.0
  0
LINE
  5
379
330
1F
100
AcDbEntity
  8
0
  6
Continuous
 62
     7
370
    50
100
AcDbLine
 10
543.2520303467
 20
126.3309848112
 30
0.0
 11
540.679209264
 21
129.3018227006
 31
0.0
  0
LINE
  5
37A
330
1F
100
AcDbEntity
  8
0
  6
Continuous
 62
     7
370
    50
100
AcDbLine
 10
543.571182391
 20
175.0300581057
 30
0.0
 11
543.7520303467
 21
174.9034270038
 31
0.0
  0
ARC
  5
37B
330
1F
100
AcDbEntity
  8
0
  6
Continuous
 62
     7
370
    50
100
AcDbCircle
 10
542.7520303467
 20
175.6036345421
 30
0.0
 40
1.000000000001023
100
AcDbArc
 50
325.0
 51
360.0
  0
LINE
  5
37C
330
1F
100
AcDbEntity
  8
0
  6
Continuous
 62
     7
370
    50
100
AcDbLine
 10
542.7520303467
 20
126.8536345421
 30
0.0
 11
542.8029209233
 21
126.8495717042
 31
0.0
  0
ARC
  5
37D
330
1F
100
AcDbEntity
  8
0
  6
Continuous
 62
     7
370
    50
100
AcDbCircle
 10
542.7520303467
 20
124.3536345421
 30
0.0
 40
1.0
100
AcDbArc
 50
360.0
 51
90.0
  0
LINE
  5
37E
330
1F
100
AcDbEntity
  8
0
  6
Continuous
 62
     7
370
    50
100
AcDbLine
 10
542.7520303467
 20
126.8536345421
 30
0.0
 11
542.7520303467
 21
125.3536345421
 31
0.0
  0
LINE
  5
37F
330
1F
100
AcDbEntity
  8
0
  6
Continuous
 62
     7
370
    50
100
AcDbLine
 10
543.571182391
 20
175.0300581057
 30
0.0
 11
541.5651973183
 21
172.1652145225
 31
0.0
  0
LINE
  5
380
330
1F
100
AcDbEntity
  8
0
  6
Continuous
 62
     7
370
    50
100
AcDbLine
 10
542.7520303467
 20
126.8536345421
 30
0.0
 11
540.3117779449
 21
126.8536345421
 31
0.0
  0
LINE
  5
381
330
1F
100
AcDbEntity
  8
0
  6
Continuous
 62
     7
370
    50
100
AcDbLine
 10
542.7520303467
 20
125.3536345421
 30
0.0
 11
540.3117779449
 21
125.3536345421
 31
0.0
  0
LINE
  5
382
330
1F
100
AcDbEntity
  8
0
  6
Continuous
 62
     7
370
    50
100
AcDbLine
 10
541.357405694
 20
171.4385601664
 30
0.0
 11
541.1554200985
 21
171.5799920029
 31
0.0
  0
LINE
  5
383
330
1F
100
AcDbEntity
  8
0
  6
Continuous
 62
     7
370
    50
100
AcDbLine
 10
541.1554200985
 20
171.5799920029
 30
0.0
 11
541.5651973183
 21
172.1652145225
 31
0.0
  0
LINE
  5
384
330
1F
100
AcDbEntity
  8
0
  6
Continuous
 62
     7
370
    50
100
AcDbLine
 10
538.8883737814
 20
126.8536345421
 30
0.0
 11
540.3117779449
 21
126.8536345421
 31
0.0
  0
LINE
  5
385
330
1F
100
AcDbEntity
  8
0
  6
Continuous
 62
     7
370
    50
100
AcDbLine
 10
540.3117779449
 20
125.3536345421
 30
0.0
 11
538.8883737814
 21
125.3536345421
 31
0.0
  0
LINE
  5
386
330
1F
100
AcDbEntity
  8
0
  6
Continuous
 62
     7
370
    50
100
AcDbLine
 10
538.8883737814
 20
126.8536345421
 30
0.0
 11
525.2520303467
 21
126.8536345421
 31
0.0
  0
LINE
  5
387
330
1F
100
AcDbEntity
  8
0
  6
Continuous
 62
     7
370
    50
100
AcDbLine
 10
538.8883737814
 20
125.3536345421
 30
0.0
 11
525.2520303467
 21
125.3536345421
 31
0.0
  0
LINE
  5
388
330
1F
100
AcDbEntity
  8
0
  6
Continuous
 62
     7
370
    50
100
AcDbLine
 10
523.2520303467
 20
125.3536345421
 30
0.0
 11
523.2520303467
 21
126.8536345421
 31
0.0
  0
LINE
  5
389
330
1F
100
AcDbEntity
  8
0
  6
Continuous
 62
     7
370
    50
100
AcDbLine
 10
523.2520303467
 20
126.8536345421
 30
0.0
 11
525.2520303467
 21
126.8536345421
 31
0.0
  0
LINE
  5
38A
330
1F
100
AcDbEntity
  8
0
  6
Continuous
 62
     7
370
    50
100
AcDbLine
 10
525.2520303467
 20
125.3536345421
 30
0.0
 11
523.2520303467
 21
125.3536345421
 31
0.0
  0
LINE
  5
38B
330
1F
100
AcDbEntity
  8
0
  6
Continuous
 62
     7
370
    50
100
AcDbLine
 10
509.2520303467
 20
125.3536345421
 30
0.0
 11
509.2520303467
 21
126.8536345421
 31
0.0
  0
LINE
  5
38C
330
1F
100
AcDbEntity
  8
0
  6
Continuous
 62
     7
370
    50
100
AcDbLine
 10
509.2520303467
 20
126.8536345421
 30
0.0
 11
511.2520303467
 21
126.8536345421
 31
0.0
  0
LINE
  5
38D
330
1F
100
AcDbEntity
  8
0
  6
Continuous
 62
     7
370
    50
100
AcDbLine
 10
509.2520303467
 20
125.3536345421
 30
0.0
 11
511.2520303467
 21
125.3536345421
 31
0.0
  0
LINE
  5
38E
330
1F
100
AcDbEntity
  8
0
  6
Continuous
 62
     7
370
    50
100
AcDbLine
 10
516.3790470005
 20
126.8536345421
 30
0.0
 11
517.3472928371
 21
126.8536345421
 31
0.0
  0
LINE
  5
38F
330
1F
100
AcDbEntity
  8
0
  6
Continuous
 62
     7
370
    50
100
AcDbLine
 10
516.3790470005
 20
125.3536345421
 30
0.0
 11
517.3472928371
 21
125.3536345421
 31
0.0
  0
LINE
  5
390
330
1F
100
AcDbEntity
  8
0
  6
Continuous
 62
     7
370
    50
100
AcDbLine
 10
511.2520303467
 20
126.8536345421
 30
0.0
 11
516.3790470005
 21
126.8536345421
 31
0.0
  0
LINE
  5
391
330
1F
100
AcDbEntity
  8
0
  6
Continuous
 62
     7
370
    50
100
AcDbLine
 10
511.2520303467
 20
125.3536345421
 30
0.0
 11
516.3790470005
 21
125.3536345421
 31
0.0
  0
LINE
  5
392
330
1F
100
AcDbEntity
  8
0
  6
Continuous
 62
     7
370
    50
100
AcDbLine
 10
517.3472928371
 20
126.8536345421
 30
0.0
 11
523.2520303467
 21
126.8536345421
 31
0.0
  0
LINE
  5
393
330
1F
100
AcDbEntity
  8
0
  6
Continuous
 62
     7
370
    50
100
AcDbLine
 10
517.3472928371
 20
125.3536345421
 30
0.0
 11
523.2520303467
 21
125.3536345421
 31
0.0
  0
LINE
  5
394
330
1F
100
AcDbEntity
  8
0
  6
Continuous
 62
     7
370
    50
100
AcDbLine
 10
-114.0840977716
 20
189.0324216832
 30
0.0
 11
-113.4857140722
 21
189.0764324587
 31
0.0
  0
LINE
  5
395
330
1F
100
AcDbEntity
  8
0
  6
Continuous
 62
     7
370
    50
100
AcDbLine
 10
-112.5179198351
 20
175.9180118379
 30
0.0
 11
-113.4857140722
 21
189.0764324587
 31
0.0
  0
LINE
  5
396
330
1F
100
AcDbEntity
  8
0
  6
Continuous
 62
     7
370
    50
100
AcDbLine
 10
-111.3915069414
 20
171.1720195115
 30
0.0
 11
-112.4651935215
 21
175.3202691613
 31
0.0
  0
LINE
  5
397
330
1F
100
AcDbEntity
  8
0
  6
Continuous
 62
     7
370
    50
100
AcDbLine
 10
-114.0840977716
 20
189.0324216832
 30
0.0
 11
-113.0718499352
 21
175.2695965983
 31
0.0
  0
LINE
  5
398
330
1F
100
AcDbEntity
  8
0
  6
Continuous
 62
     7
370
    50
100
AcDbLine
 10
-108.633041688
 20
171.3708735751
 30
0.0
 11
-108.0361063907
 21
171.3103074891
 31
0.0
  0
LINE
  5
399
330
1F
100
AcDbEntity
  8
0
  6
Continuous
 62
     7
370
    50
100
AcDbLine
 10
-111.972365771
 20
171.0216765035
 30
0.0
 11
-111.3915069414
 21
171.1720195115
 31
0.0
  0
LINE
  5
39A
330
1F
100
AcDbEntity
  8
0
  6
Continuous
 62
     7
370
    50
100
AcDbLine
 10
-108.2005041552
 20
175.6339346012
 30
0.0
 11
-108.633041688
 21
171.3708735751
 31
0.0
  0
LINE
  5
39B
330
1F
100
AcDbEntity
  8
0
  6
Continuous
 62
     7
370
    50
100
AcDbLine
 10
-113.0718499352
 20
175.2695965983
 30
0.0
 11
-111.972365771
 21
171.0216765035
 31
0.0
  0
LINE
  5
39C
330
1F
100
AcDbEntity
  8
0
  6
Continuous
 62
     7
370
    50
100
AcDbLine
 10
-108.0361063907
 20
171.3103074891
 30
0.0
 11
-107.5313890072
 21
176.2847683004
 31
0.0
  0
LINE
  5
39D
330
1F
100
AcDbEntity
  8
0
  6
Continuous
 62
     7
370
    50
100
AcDbLine
 10
-112.4651935215
 20
175.3202691613
 30
0.0
 11
-108.2005041552
 21
175.6339346012
 31
0.0
  0
LINE
  5
39E
330
1F
100
AcDbEntity
  8
0
  6
Continuous
 62
     7
370
    50
100
AcDbLine
 10
-107.5313890072
 20
176.2847683004
 30
0.0
 11
-112.5179198351
 21
175.9180118379
 31
0.0
  0
LINE
  5
39F
330
1F
100
AcDbEntity
  8
0
  6
Continuous
 62
     7
370
    50
100
AcDbLine
 10
-111.3915069414
 20
171.1720195115
 30
0.0
 11
-111.5431671383
 21
128.0447172284
 31
0.0
  0
LINE
  5
3A0
330
1F
100
AcDbEntity
  8
0
  6
Continuous
 62
     7
370
    50
100
AcDbLine
 10
-111.5431671383
 20
128.0447172284
 30
0.0
 11
-101.5701054826
 21
128.7782301533
 31
0.0
  0
LINE
  5
3A1
330
1F
100
AcDbEntity
  8
0
  6
Continuous
 62
     7
370
    50
100
AcDbLine
 10
-101.5701054826
 20
128.7782301533
 30
0.0
 11
-108.633041688
 21
171.3708735751
 31
0.0
  0
LINE
  5
3A2
330
1F
100
AcDbEntity
  8
0
  6
Continuous
 62
     7
370
    50
100
AcDbLine
 10
-114.7134841636
 20
102.6036345421
 30
0.0
 11
-116.2134841636
 21
102.6036345421
 31
0.0
  0
LINE
  5
3A3
330
1F
100
AcDbEntity
  8
0
  6
Continuous
 62
     7
370
    50
100
AcDbLine
 10
-116.2134841636
 20
104.6036345421
 30
0.0
 11
-116.2134841636
 21
102.6036345421
 31
0.0
  0
LINE
  5
3A4
330
1F
100
AcDbEntity
  8
0
  6
Continuous
 62
     7
370
    50
100
AcDbLine
 10
-114.7134841636
 20
104.6036345421
 30
0.0
 11
-114.7134841636
 21
102.6036345421
 31
0.0
  0
LINE
  5
3A5
330
1F
100
AcDbEntity
  8
0
  6
Continuous
 62
     7
370
    50
100
AcDbLine
 10
-116.2134841636
 20
188.6036345421
 30
0.0
 11
-116.2134841636
 21
104.6036345421
 31
0.0
  0
LINE
  5
3A6
330
1F
100
AcDbEntity
  8
0
  6
Continuous
 62
     7
370
    50
100
AcDbLine
 10
-114.7134841636
 20
188.6036345421
 30
0.0
 11
-114.7134841636
 21
104.6036345421
 31
0.0
  0
LINE
  5
3A7
330
1F
100
AcDbEntity
  8
0
  6
Continuous
 62
     7
370
    50
100
AcDbLine
 10
-114.7134841636
 20
190.6036345421
 30
0.0
 11
-116.2134841636
 21
190.6036345421
 31
0.0
  0
LINE
  5
3A8
330
1F
100
AcDbEntity
  8
0
  6
Continuous
 62
     7
370
    50
100
AcDbLine
 10
-116.2134841636
 20
190.6036345421
 30
0.0
 11
-116.2134841636
 21
188.6036345421
 31
0.0
  0
LINE
  5
3A9
330
1F
100
AcDbEntity
  8
0
  6
Continuous
 62
     7
370
    50
100
AcDbLine
 10
-114.7134841636
 20
190.6036345421
 30
0.0
 11
-114.7134841636
 21
188.6036345421
 31
0.0
  0
LINE
  5
3AA
330
1F
100
AcDbEntity
  8
0
  6
Continuous
 62
     7
370
    50
100
AcDbLine
 10
-104.2134841636
 20
102.6036345421
 30
0.0
 11
-104.2134841636
 21
104.1036345421
 31
0.0
  0
LINE
  5
3AB
330
1F
100
AcDbEntity
  8
0
  6
Continuous
 62
     7
370
    50
100
AcDbLine
 10
-104.2134841636
 20
104.1036345421
 30
0.0
 11
-106.2134841636
 21
104.1036345421
 31
0.0
  0
LINE
  5
3AC
330
1F
100
AcDbEntity
  8
0
  6
Continuous
 62
     7
370
    50
100
AcDbLine
 10
-106.2134841636
 20
102.6036345421
 30
0.0
 11
-104.2134841636
 21
102.6036345421
 31
0.0
  0
LINE
  5
3AD
330
1F
100
AcDbEntity
  8
0
  6
Continuous
 62
     7
370
    50
100
AcDbLine
 10
-113.7134841636
 20
104.1036345421
 30
0.0
 11
-106.2134841636
 21
104.1036345421
 31
0.0
  0
LINE
  5
3AE
330
1F
100
AcDbEntity
  8
0
  6
Continuous
 62
     7
370
    50
100
AcDbLine
 10
-113.7134841636
 20
102.6036345421
 30
0.0
 11
-106.2134841636
 21
102.6036345421
 31
0.0
  0
ARC
  5
3AF
330
1F
100
AcDbEntity
  8
0
  6
Continuous
 62
     7
370
    50
100
AcDbCircle
 10
-113.7134841636
 20
105.1036345421
 30
0.0
 40
2.5
100
AcDbArc
 50
246.4218215218
 51
270.0
  0
ARC
  5
3B0
330
1F
100
AcDbEntity
  8
0
  6
Continuous
 62
     7
370
    50
100
AcDbCircle
 10
-113.7134841636
 20
105.1036345421
 30
0.0
 40
1.0
100
AcDbArc
 50
180.0
 51
270.0
  0
LINE
  5
3B1
330
1F
100
AcDbEntity
  8
0
  6
Continuous
 62
     7
370
    50
100
AcDbLine
 10
-105.9868597129
 20
177.9646368303
 30
0.0
 11
-111.4664990478
 21
189.199562409
 31
0.0
  0
LINE
  5
3B2
330
1F
100
AcDbEntity
  8
0
  6
Continuous
 62
     7
370
    50
100
AcDbLine
 10
-107.3350507824
 20
177.3070801101
 30
0.0
 11
-112.8146901173
 21
188.5420056888
 31
0.0
  0
ARC
  5
3B3
330
1F
100
AcDbEntity
  8
0
  6
Continuous
 62
     7
370
    50
100
AcDbCircle
 10
-108.2338448287
 20
176.8687089633
 30
0.0
 40
1.000000000000032
100
AcDbArc
 50
351.0
 51
26.0
  0
ARC
  5
3B4
330
1F
100
AcDbEntity
  8
0
  6
Continuous
 62
     7
370
    50
100
AcDbCircle
 10
-108.2338448287
 20
176.8687089633
 30
0.0
 40
2.500000000000023
100
AcDbArc
 50
351.0
 51
26.0
  0
LINE
  5
3B5
330
1F
100
AcDbEntity
  8
0
  6
Continuous
 62
     7
370
    50
100
AcDbLine
 10
-107.9050198199
 20
172.5523751392
 30
0.0
 11
-106.423487309
 21
172.3177234417
 31
0.0
  0
LINE
  5
3B6
330
1F
100
AcDbEntity
  8
0
  6
Continuous
 62
     7
370
    50
100
AcDbLine
 10
-107.5921508898
 20
174.5277518204
 30
0.0
 11
-107.9050198199
 21
172.5523751392
 31
0.0
  0
LINE
  5
3B7
330
1F
100
AcDbEntity
  8
0
  6
Continuous
 62
     7
370
    50
100
AcDbLine
 10
-106.423487309
 20
172.3177234417
 30
0.0
 11
-106.1106183789
 21
174.2931001229
 31
0.0
  0
LINE
  5
3B8
330
1F
100
AcDbEntity
  8
0
  6
Continuous
 62
     7
370
    50
100
AcDbLine
 10
-107.5921508898
 20
174.5277518204
 30
0.0
 11
-107.2461564881
 21
176.7122744983
 31
0.0
  0
LINE
  5
3B9
330
1F
100
AcDbEntity
  8
0
  6
Continuous
 62
     7
370
    50
100
AcDbLine
 10
-106.1106183789
 20
174.2931001229
 30
0.0
 11
-105.7646239772
 21
176.4776228007
 31
0.0
  0
ARC
  5
3BA
330
1F
100
AcDbEntity
  8
0
  6
Continuous
 62
     7
370
    50
100
AcDbCircle
 10
-113.7134841636
 20
188.1036345421
 30
0.0
 40
0.999999999999994
100
AcDbArc
 50
26.0
 51
180.0
  0
ARC
  5
3BB
330
1F
100
AcDbEntity
  8
0
  6
Continuous
 62
     7
370
    50
100
AcDbCircle
 10
-113.7134841636
 20
188.1036345421
 30
0.0
 40
2.499999999999998
100
AcDbArc
 50
26.0
 51
113.5781784782
  0
ARC
  5
3BC
330
1F
100
AcDbEntity
  8
0
  6
Continuous
 62
     7
370
    50
100
AcDbCircle
 10
-113.8480806352
 20
174.4479144966
 30
0.0
 40
0.899219641185683
100
AcDbArc
 50
195.7629344921
 51
246.0238548062
  0
ARC
  5
3BD
330
1F
100
AcDbEntity
  8
0
  6
Continuous
 62
     7
370
    50
100
AcDbCircle
 10
-113.8985238572
 20
125.5530396993
 30
0.0
 40
0.8392845714179109
100
AcDbArc
 50
112.0411476748
 51
166.172063027
  0
LINE
  5
3BE
330
1F
100
AcDbEntity
  8
0
  6
Continuous
 62
     7
370
    50
100
AcDbLine
 10
-111.5382926815
 20
129.4308566085
 30
0.0
 11
-111.6406630808
 21
129.3018227006
 31
0.0
  0
LINE
  5
3BF
330
1F
100
AcDbEntity
  8
0
  6
Continuous
 62
     7
370
    50
100
AcDbLine
 10
-111.6406630808
 20
170.6554463835
 30
0.0
 11
-111.9604897143
 21
171.0247503693
 31
0.0
  0
LINE
  5
3C0
330
1F
100
AcDbEntity
  8
0
  6
Continuous
 62
     7
370
    50
100
AcDbLine
 10
-111.9785629074
 20
171.0456194951
 30
0.0
 11
-114.2134841636
 21
173.6262842729
 31
0.0
  0
ARC
  5
3C1
330
1F
100
AcDbEntity
  8
0
  6
Continuous
 62
     7
370
    50
100
AcDbCircle
 10
-113.1484861103
 20
169.3554598102
 30
0.0
 40
1.990852927488869
100
AcDbArc
 50
28.2390700678
 51
40.766638029
  0
LINE
  5
3C2
330
1F
100
AcDbEntity
  8
0
  6
Continuous
 62
     7
370
    50
100
AcDbLine
 10
-114.2134841636
 20
126.3309848112
 30
0.0
 11
-111.6406630808
 21
129.3018227006
 31
0.0
  0
LINE
  5
3C3
330
1F
100
AcDbEntity
  8
0
  6
Continuous
 62
     7
370
    50
100
AcDbLine
 10
-114.5326362078
 20
175.0300581057
 30
0.0
 11
-114.7134841636
 21
174.9034270038
 31
0.0
  0
ARC
  5
3C4
330
1F
100
AcDbEntity
  8
0
  6
Continuous
 62
     7
370
    50
100
AcDbCircle
 10
-113.7134841636
 20
175.6036345421
 30
0.0
 40
0.9999999999999574
100
AcDbArc
 50
180.0
 51
215.0
  0
ARC
  5
3C5
330
1F
100
AcDbEntity
  8
0
  6
Continuous
 62
     7
370
    50
100
AcDbCircle
 10
-113.7134841636
 20
124.3536345421
 30
0.0
 40
1.000000000000014
100
AcDbArc
 50
90.0
 51
180.0
  0
LINE
  5
3C6
330
1F
100
AcDbEntity
  8
0
  6
Continuous
 62
     7
370
    50
100
AcDbLine
 10
-113.7134841636
 20
126.8536345421
 30
0.0
 11
-113.7643747402
 21
126.8495717042
 31
0.0
  0
LINE
  5
3C7
330
1F
100
AcDbEntity
  8
0
  6
Continuous
 62
     7
370
    50
100
AcDbLine
 10
-113.7134841636
 20
126.8536345421
 30
0.0
 11
-113.7134841636
 21
125.3536345421
 31
0.0
  0
LINE
  5
3C8
330
1F
100
AcDbEntity
  8
0
  6
Continuous
 62
     7
370
    50
100
AcDbLine
 10
-114.5326362078
 20
175.0300581057
 30
0.0
 11
-112.5266511351
 21
172.1652145225
 31
0.0
  0
LINE
  5
3C9
330
1F
100
AcDbEntity
  8
0
  6
Continuous
 62
     7
370
    50
100
AcDbLine
 10
-113.7134841636
 20
126.8536345421
 30
0.0
 11
-111.2732317617
 21
126.8536345421
 31
0.0
  0
LINE
  5
3CA
330
1F
100
AcDbEntity
  8
0
  6
Continuous
 62
     7
370
    50
100
AcDbLine
 10
-113.7134841636
 20
125.3536345421
 30
0.0
 11
-111.2732317617
 21
125.3536345421
 31
0.0
  0
LINE
  5
3CB
330
1F
100
AcDbEntity
  8
0
  6
Continuous
 62
     7
370
    50
100
AcDbLine
 10
-112.3188595109
 20
171.4385601664
 30
0.0
 11
-112.1168739154
 21
171.5799920029
 31
0.0
  0
LINE
  5
3CC
330
1F
100
AcDbEntity
  8
0
  6
Continuous
 62
     7
370
    50
100
AcDbLine
 10
-112.1168739154
 20
171.5799920029
 30
0.0
 11
-112.5266511351
 21
172.1652145225
 31
0.0
  0
LINE
  5
3CD
330
1F
100
AcDbEntity
  8
0
  6
Continuous
 62
     7
370
    50
100
AcDbLine
 10
-109.8498275983
 20
126.8536345421
 30
0.0
 11
-111.2732317617
 21
126.8536345421
 31
0.0
  0
LINE
  5
3CE
330
1F
100
AcDbEntity
  8
0
  6
Continuous
 62
     7
370
    50
100
AcDbLine
 10
-111.2732317617
 20
125.3536345421
 30
0.0
 11
-109.8498275983
 21
125.3536345421
 31
0.0
  0
LINE
  5
3CF
330
1F
100
AcDbEntity
  8
0
  6
Continuous
 62
     7
370
    50
100
AcDbLine
 10
-109.8498275983
 20
126.8536345421
 30
0.0
 11
-96.2134841636
 21
126.8536345421
 31
0.0
  0
LINE
  5
3D0
330
1F
100
AcDbEntity
  8
0
  6
Continuous
 62
     7
370
    50
100
AcDbLine
 10
-109.8498275983
 20
125.3536345421
 30
0.0
 11
-96.2134841636
 21
125.3536345421
 31
0.0
  0
LINE
  5
3D1
330
1F
100
AcDbEntity
  8
0
  6
Continuous
 62
     7
370
    50
100
AcDbLine
 10
-94.2134841636
 20
125.3536345421
 30
0.0
 11
-94.2134841636
 21
126.8536345421
 31
0.0
  0
LINE
  5
3D2
330
1F
100
AcDbEntity
  8
0
  6
Continuous
 62
     7
370
    50
100
AcDbLine
 10
-94.2134841636
 20
126.8536345421
 30
0.0
 11
-96.2134841636
 21
126.8536345421
 31
0.0
  0
LINE
  5
3D3
330
1F
100
AcDbEntity
  8
0
  6
Continuous
 62
     7
370
    50
100
AcDbLine
 10
-96.2134841636
 20
125.3536345421
 30
0.0
 11
-94.2134841636
 21
125.3536345421
 31
0.0
  0
LINE
  5
3D4
330
1F
100
AcDbEntity
  8
0
  6
Continuous
 62
     7
370
    50
100
AcDbLine
 10
-80.2134841636
 20
125.3536345421
 30
0.0
 11
-80.2134841636
 21
126.8536345421
 31
0.0
  0
LINE
  5
3D5
330
1F
100
AcDbEntity
  8
0
  6
Continuous
 62
     7
370
    50
100
AcDbLine
 10
-82.2134841636
 20
126.8536345421
 30
0.0
 11
-80.2134841636
 21
126.8536345421
 31
0.0
  0
LINE
  5
3D6
330
1F
100
AcDbEntity
  8
0
  6
Continuous
 62
     7
370
    50
100
AcDbLine
 10
-82.2134841636
 20
125.3536345421
 30
0.0
 11
-80.2134841636
 21
125.3536345421
 31
0.0
  0
LINE
  5
3D7
330
1F
100
AcDbEntity
  8
0
  6
Continuous
 62
     7
370
    50
100
AcDbLine
 10
-88.3087466539
 20
126.8536345421
 30
0.0
 11
-87.3405008173
 21
126.8536345421
 31
0.0
  0
LINE
  5
3D8
330
1F
100
AcDbEntity
  8
0
  6
Continuous
 62
     7
370
    50
100
AcDbLine
 10
-88.3087466539
 20
125.3536345421
 30
0.0
 11
-87.3405008173
 21
125.3536345421
 31
0.0
  0
LINE
  5
3D9
330
1F
100
AcDbEntity
  8
0
  6
Continuous
 62
     7
370
    50
100
AcDbLine
 10
-94.2134841636
 20
126.8536345421
 30
0.0
 11
-88.3087466539
 21
126.8536345421
 31
0.0
  0
LINE
  5
3DA
330
1F
100
AcDbEntity
  8
0
  6
Continuous
 62
     7
370
    50
100
AcDbLine
 10
-94.2134841636
 20
125.3536345421
 30
0.0
 11
-88.3087466539
 21
125.3536345421
 31
0.0
  0
LINE
  5
3DB
330
1F
100
AcDbEntity
  8
0
  6
Continuous
 62
     7
370
    50
100
AcDbLine
 10
-87.3405008173
 20
126.8536345421
 30
0.0
 11
-82.2134841636
 21
126.8536345421
 31
0.0
  0
LINE
  5
3DC
330
1F
100
AcDbEntity
  8
0
  6
Continuous
 62
     7
370
    50
100
AcDbLine
 10
-87.3405008173
 20
125.3536345421
 30
0.0
 11
-82.2134841636
 21
125.3536345421
 31
0.0
  0
LINE
  5
3DD
330
1F
100
AcDbEntity
  8
0
  6
Continuous
 62
     7
370
    50
100
AcDbLine
 10
88.5472760483
 20
-191.5102013245
 30
0.0
 11
87.4866158766
 21
-190.8978952407
 31
0.0
  0
LINE
  5
3DE
330
1F
100
AcDbEntity
  8
0
  6
Continuous
 62
     7
370
    50
100
AcDbLine
 10
390.3533748101
 20
-13.9166829779
 30
0.0
 11
86.2974588999
 21
-189.4444270197
 31
0.0
  0
LINE
  5
3DF
330
1F
100
AcDbEntity
  8
0
  6
Continuous
 62
     7
370
    50
100
AcDbLine
 10
107.7250268454
 20
-231.962207006
 30
0.0
 11
107.7250268454
 21
-193.1079539972
 31
0.0
  0
LINE
  5
3E0
330
1F
100
AcDbEntity
  8
0
  6
Continuous
 62
     7
370
    50
100
AcDbLine
 10
69.9304292252
 20
-271.9320081187
 30
0.0
 11
70.991089397
 21
-272.5443142025
 31
0.0
  0
LINE
  5
3E1
330
1F
100
AcDbEntity
  8
0
  6
Continuous
 62
     7
370
    50
100
AcDbLine
 10
88.9099056549
 20
-261.4825273016
 30
0.0
 11
392.8531716417
 21
-86.0198146763
 31
0.0
  0
LINE
  5
3E2
330
1F
100
AcDbEntity
  8
0
  6
Continuous
 62
     7
370
    50
100
AcDbLine
 10
411.6950750506
 20
-4.9609477731
 30
0.0
 11
410.6344148788
 21
-4.3486416892
 31
0.0
  0
LINE
  5
3E3
330
1F
100
AcDbEntity
  8
0
  6
Continuous
 62
     7
370
    50
100
AcDbLine
 10
393.2711185559
 20
-85.4941077836
 30
0.0
 11
394.1388883992
 21
-85.995060651
 31
0.0
  0
LINE
  5
3E4
330
1F
100
AcDbEntity
  8
0
  6
Continuous
 62
     7
370
    50
100
AcDbLine
 10
107.3348085301
 20
-192.7131494422
 30
0.0
 11
107.583773442
 21
-192.5694250578
 31
0.0
  0
LINE
  5
3E5
330
1F
100
AcDbEntity
  8
0
  6
Continuous
 62
     7
370
    50
100
AcDbLine
 10
107.7250268454
 20
-227.2299211773
 30
0.0
 11
370.6210638284
 21
-75.4632694711
 31
0.0
  0
LWPOLYLINE
  5
3E6
330
1F
100
AcDbEntity
  8
0
  6
Continuous
 62
     7
370
    50
100
AcDbPolyline
 90
       35
 70
   128
 43
0.0
 10
405.2150787638
 20
-72.6077883246
 10
405.0030371201
 20
-72.7415178221
 10
404.792804541
 20
-72.8967473113
 10
404.5861746566
 20
-73.0721524287
 10
404.3849103604
 20
-73.2662366798
 10
404.1907287682
 20
-73.4773442062
 10
404.0052865691
 20
-73.7036739129
 10
403.8301658904
 20
-73.9432948346
 10
403.6668608
 20
-74.1941626102
 10
403.5167645594
 20
-74.4541369242
 10
403.3811577368
 20
-74.7209997674
 10
403.2611972818
 20
-74.9924743602
 10
403.1579066546
 20
-75.266244577
 10
403.0721670945
 20
-75.5399747069
 10
403.0047101013
 20
-75.8113293809
 10
402.9561111941
 20
-76.0779934966
 10
402.9267850017
 20
-76.3376919699
 10
402.9169817249
 20
-76.5882091449
 10
402.9267850017
 20
-76.8274076974
 10
402.9561111941
 20
-77.0532468696
 10
403.0047101013
 20
-77.2637998815
 10
403.0721670945
 20
-77.4572703689
 10
403.1579066546
 20
-77.6320077099
 10
403.2611972818
 20
-77.7865211071
 10
403.3811577368
 20
-77.9194923066
 10
403.5167645594
 20
-78.0297868451
 10
403.6668608
 20
-78.1164637284
 10
403.8301658904
 20
-78.1787834599
 10
404.0052865691
 20
-78.2162143498
 10
404.1907287682
 20
-78.2284370507
 10
404.3849103604
 20
-78.215347283
 10
404.5861746566
 20
-78.1770567239
 10
404.792804541
 20
-78.113892055
 10
405.0030371201
 20
-78.0263921749
 10
405.2150787638
 20
-77.9153036018
  0
LINE
  5
3E7
330
1F
100
AcDbEntity
  8
0
  6
Continuous
 62
     7
370
    50
100
AcDbLine
 10
408.3970592791
 20
-76.0783853502
 30
0.0
 11
405.2150787638
 21
-77.9153036018
 31
0.0
  0
LWPOLYLINE
  5
3E8
330
1F
100
AcDbEntity
  8
0
  6
Continuous
 62
     7
370
    50
100
AcDbPolyline
 90
       35
 70
   128
 43
0.0
 10
408.3970592791
 20
-76.0783853502
 10
408.6091009228
 20
-75.9446558526
 10
408.8193335019
 20
-75.7894263635
 10
409.0259633862
 20
-75.6140212461
 10
409.2272276825
 20
-75.4199369949
 10
409.4214092746
 20
-75.2088294685
 10
409.6068514738
 20
-74.9824997619
 10
409.7819721525
 20
-74.7428788401
 10
409.9452772429
 20
-74.4920110646
 10
410.0953734835
 20
-74.2320367506
 10
410.2309803061
 20
-73.9651739074
 10
410.3509407611
 20
-73.6936993146
 10
410.4542313883
 20
-73.4199290978
 10
410.5399709483
 20
-73.1461989679
 10
410.6074279416
 20
-72.8748442939
 10
410.6560268488
 20
-72.6081801781
 10
410.6853530411
 20
-72.3484817048
 10
410.695156318
 20
-72.0979645299
 10
410.6853530411
 20
-71.8587659774
 10
410.6560268488
 20
-71.6329268051
 10
410.6074279416
 20
-71.4223737932
 10
410.5399709483
 20
-71.2289033058
 10
410.4542313883
 20
-71.0541659648
 10
410.3509407611
 20
-70.8996525677
 10
410.2309803061
 20
-70.7666813682
 10
410.0953734835
 20
-70.6563868297
 10
409.9452772429
 20
-70.5697099464
 10
409.7819721525
 20
-70.5073902148
 10
409.6068514738
 20
-70.469959325
 10
409.4214092746
 20
-70.457736624
 10
409.2272276825
 20
-70.4708263918
 10
409.0259633862
 20
-70.5091169509
 10
408.8193335019
 20
-70.5722816198
 10
408.6091009228
 20
-70.6597814999
 10
408.3970592791
 20
-70.770870073
  0
LINE
  5
3E9
330
1F
100
AcDbEntity
  8
0
  6
Continuous
 62
     7
370
    50
100
AcDbLine
 10
408.3970592791
 20
-70.770870073
 30
0.0
 11
405.2150787638
 21
-72.6077883246
 31
0.0
  0
LINE
  5
3EA
330
1F
100
AcDbEntity
  8
0
  6
Continuous
 62
     7
370
    50
100
AcDbLine
 10
408.3970592791
 20
-13.8579754845
 30
0.0
 11
405.2150787638
 21
-15.6948937361
 31
0.0
  0
LWPOLYLINE
  5
3EB
330
1F
100
AcDbEntity
  8
0
  6
Continuous
 62
     7
370
    50
100
AcDbPolyline
 90
       35
 70
   128
 43
0.0
 10
408.3970592791
 20
-8.5504602073
 10
408.6091009228
 20
-8.4393716342
 10
408.8193335019
 20
-8.3518717541
 10
409.0259633862
 20
-8.2887070852
 10
409.2272276825
 20
-8.2504165261
 10
409.4214092746
 20
-8.2373267583
 10
409.6068514738
 20
-8.2495494593
 10
409.7819721525
 20
-8.2869803491
 10
409.9452772429
 20
-8.3493000807
 10
410.0953734835
 20
-8.435976964
 10
410.2309803061
 20
-8.5462715025
 10
410.3509407611
 20
-8.679242702
 10
410.4542313883
 20
-8.8337560992
 10
410.5399709483
 20
-9.0084934401
 10
410.6074279416
 20
-9.2019639275
 10
410.6560268488
 20
-9.4125169394
 10
410.6853530411
 20
-9.6383561117
 10
410.695156318
 20
-9.8775546642
 10
410.6853530411
 20
-10.1280718392
 10
410.6560268488
 20
-10.3877703124
 10
410.6074279416
 20
-10.6544344282
 10
410.5399709483
 20
-10.9257891022
 10
410.4542313883
 20
-11.1995192321
 10
410.3509407611
 20
-11.4732894489
 10
410.2309803061
 20
-11.7447640417
 10
410.0953734835
 20
-12.0116268849
 10
409.9452772429
 20
-12.2716011989
 10
409.7819721525
 20
-12.5224689744
 10
409.6068514738
 20
-12.7620898962
 10
409.4214092746
 20
-12.9884196029
 10
409.2272276825
 20
-13.1995271292
 10
409.0259633862
 20
-13.3936113804
 10
408.8193335019
 20
-13.5690164978
 10
408.6091009228
 20
-13.7242459869
 10
408.3970592791
 20
-13.8579754845
  0
LINE
  5
3EC
330
1F
100
AcDbEntity
  8
0
  6
Continuous
 62
     7
370
    50
100
AcDbLine
 10
408.3970592791
 20
-8.5504602073
 30
0.0
 11
405.2150787638
 21
-10.3873784589
 31
0.0
  0
LWPOLYLINE
  5
3ED
330
1F
100
AcDbEntity
  8
0
  6
Continuous
 62
     7
370
    50
100
AcDbPolyline
 90
       35
 70
   128
 43
0.0
 10
405.2150787638
 20
-15.6948937361
 10
405.0030371201
 20
-15.8059823092
 10
404.792804541
 20
-15.8934821893
 10
404.5861746566
 20
-15.9566468582
 10
404.3849103604
 20
-15.9949374173
 10
404.1907287682
 20
-16.008027185
 10
404.0052865691
 20
-15.9958044841
 10
403.8301658904
 20
-15.9583735942
 10
403.6668608
 20
-15.8960538627
 10
403.5167645594
 20
-15.8093769794
 10
403.3811577368
 20
-15.6990824409
 10
403.2611972818
 20
-15.5661112414
 10
403.1579066546
 20
-15.4115978442
 10
403.0721670945
 20
-15.2368605032
 10
403.0047101013
 20
-15.0433900158
 10
402.9561111941
 20
-14.832837004
 10
402.9267850017
 20
-14.6069978317
 10
402.9169817249
 20
-14.3677992792
 10
402.9267850017
 20
-14.1172821042
 10
402.9561111941
 20
-13.857583631
 10
403.0047101013
 20
-13.5909195152
 10
403.0721670945
 20
-13.3195648412
 10
403.1579066546
 20
-13.0458347113
 10
403.2611972818
 20
-12.7720644945
 10
403.3811577368
 20
-12.5005899017
 10
403.5167645594
 20
-12.2337270585
 10
403.6668608
 20
-11.9737527445
 10
403.8301658904
 20
-11.7228849689
 10
404.0052865691
 20
-11.4832640472
 10
404.1907287682
 20
-11.2569343405
 10
404.3849103604
 20
-11.0458268141
 10
404.5861746566
 20
-10.851742563
 10
404.792804541
 20
-10.6763374456
 10
405.0030371201
 20
-10.5211079564
 10
405.2150787638
 20
-10.3873784589
  0
LWPOLYLINE
  5
3EE
330
1F
100
AcDbEntity
  8
0
  6
Continuous
 62
     7
370
    50
100
AcDbPolyline
 90
       10
 70
   128
 43
0.0
 10
393.7245935695
 20
-17.3064836516
 10
393.7139326303
 20
-17.3824564322
 10
393.6832356793
 20
-17.4615746326
 10
393.6362052218
 20
-17.5342954302
 10
393.5785138252
 20
-17.5918476235
 10
393.5171199232
 20
-17.6272895687
 10
393.4594285265
 20
-17.6363464442
 10
393.4123980691
 20
-17.6179258569
 10
393.3817011181
 20
-17.5742496017
 10
393.3710401789
 20
-17.5105856796
  0
LINE
  5
3EF
330
1F
100
AcDbEntity
  8
0
  6
Continuous
 62
     7
370
    50
100
AcDbLine
 10
393.7245935695
 20
-16.4899428397
 30
0.0
 11
393.7245935695
 21
-17.3064836516
 31
0.0
  0
ARC
  5
3F0
330
1F
100
AcDbEntity
  8
0
  6
Continuous
 62
     7
370
    50
100
AcDbCircle
 10
396.7864288265
 20
-16.6247010953
 30
0.0
 40
3.06479932925022
100
AcDbArc
 50
122.5200896024
 51
177.479910252
  0
LINE
  5
3F1
330
1F
100
AcDbEntity
  8
0
  6
Continuous
 62
     7
370
    50
100
AcDbLine
 10
395.1388071318
 20
-14.0404531041
 30
0.0
 11
410.695156318
 21
-5.059963874
 31
0.0
  0
ARC
  5
3F2
330
1F
100
AcDbEntity
  8
0
  6
Continuous
 62
     7
370
    50
100
AcDbCircle
 10
411.2443548759
 20
-5.7417464411
 30
0.0
 40
0.8754693169120467
100
AcDbArc
 50
351.1366473995
 51
128.8526008457
  0
LINE
  5
3F3
330
1F
100
AcDbEntity
  8
0
  6
Continuous
 62
     7
370
    50
100
AcDbLine
 10
412.1093698803
 20
-5.876637386
 30
0.0
 11
412.1093698803
 21
-74.4660655844
 31
0.0
  0
ARC
  5
3F4
330
1F
100
AcDbEntity
  8
0
  6
Continuous
 62
     7
370
    50
100
AcDbCircle
 10
409.0475346233
 20
-74.3313073288
 30
0.0
 40
3.064799329250167
100
AcDbArc
 50
302.5200896024
 51
357.479910252
  0
LINE
  5
3F5
330
1F
100
AcDbEntity
  8
0
  6
Continuous
 62
     7
370
    50
100
AcDbLine
 10
410.695156318
 20
-76.91555532
 30
0.0
 11
395.1388071318
 21
-85.89604455
 31
0.0
  0
ARC
  5
3F6
330
1F
100
AcDbEntity
  8
0
  6
Continuous
 62
     7
370
    50
100
AcDbCircle
 10
394.5896085739
 20
-85.214261983
 30
0.0
 40
0.875469316911946
100
AcDbArc
 50
171.1366473995
 51
308.8526008457
  0
LINE
  5
3F7
330
1F
100
AcDbEntity
  8
0
  6
Continuous
 62
     7
370
    50
100
AcDbLine
 10
393.7245935695
 20
-84.2628302262
 30
0.0
 11
393.7245935695
 21
-85.0793710381
 31
0.0
  0
LWPOLYLINE
  5
3F8
330
1F
100
AcDbEntity
  8
0
  6
Continuous
 62
     7
370
    50
100
AcDbPolyline
 90
       10
 70
   128
 43
0.0
 10
393.3710401789
 20
-84.4669322541
 10
393.3817011181
 20
-84.3909594736
 10
393.4123980691
 20
-84.3118412732
 10
393.4594285265
 20
-84.2391204756
 10
393.5171199232
 20
-84.1815682822
 10
393.5785138252
 20
-84.146126337
 10
393.6362052218
 20
-84.1370694616
 10
393.6832356793
 20
-84.1554900488
 10
393.7139326303
 20
-84.199166304
 10
393.7245935695
 20
-84.2628302262
  0
LINE
  5
3F9
330
1F
100
AcDbEntity
  8
0
  6
Continuous
 62
     7
370
    50
100
AcDbLine
 10
393.3710401789
 20
-84.8752026601
 30
0.0
 11
393.3710401789
 21
-84.4669322541
 31
0.0
  0
LINE
  5
3FA
330
1F
100
AcDbEntity
  8
0
  6
Continuous
 62
     7
370
    50
100
AcDbLine
 10
89.3151242687
 20
-260.402946702
 30
0.0
 11
393.3710401789
 21
-84.8752026601
 31
0.0
  0
LINE
  5
3FB
330
1F
100
AcDbEntity
  8
0
  6
Continuous
 62
     7
370
    50
100
AcDbLine
 10
89.3151242687
 20
-260.402946702
 30
0.0
 11
89.3151242687
 21
-259.994676296
 31
0.0
  0
LWPOLYLINE
  5
3FC
330
1F
100
AcDbEntity
  8
0
  6
Continuous
 62
     7
370
    50
100
AcDbPolyline
 90
       10
 70
   128
 43
0.0
 10
89.3151242687
 20
-259.994676296
 10
89.3044633295
 20
-259.9310123738
 10
89.2737663785
 20
-259.8873361187
 10
89.226735921
 20
-259.8689155314
 10
89.1690445244
 20
-259.8779724068
 10
89.1076506224
 20
-259.9134143521
 10
89.0499592257
 20
-259.9709665454
 10
89.0029287683
 20
-260.043687343
 10
88.9722318173
 20
-260.1228055434
 10
88.9615708781
 20
-260.198778324
  0
LINE
  5
3FD
330
1F
100
AcDbEntity
  8
0
  6
Continuous
 62
     7
370
    50
100
AcDbLine
 10
88.9615708781
 20
-260.198778324
 30
0.0
 11
88.9615708781
 21
-261.0153191359
 31
0.0
  0
ARC
  5
3FE
330
1F
100
AcDbEntity
  8
0
  6
Continuous
 62
     7
370
    50
100
AcDbCircle
 10
85.8997290796
 20
-260.8805571036
 30
0.0
 40
3.064806030411577
100
AcDbArc
 50
302.5201547614
 51
357.479845093
  0
LINE
  5
3FF
330
1F
100
AcDbEntity
  8
0
  6
Continuous
 62
     7
370
    50
100
AcDbLine
 10
71.9910081296
 20
-272.4452981015
 30
0.0
 11
87.5473573157
 21
-263.4648088715
 31
0.0
  0
ARC
  5
400
330
1F
100
AcDbEntity
  8
0
  6
Continuous
 62
     7
370
    50
100
AcDbCircle
 10
71.4418073907
 20
-271.7635193111
 30
0.0
 40
0.8754677439241706
100
AcDbArc
 50
171.1363811896
 51
308.8528670556
  0
LINE
  5
401
330
1F
100
AcDbEntity
  8
0
  6
Continuous
 62
     7
370
    50
100
AcDbLine
 10
70.5767945672
 20
-203.0391963912
 30
0.0
 11
70.5767945672
 21
-271.6286245896
 31
0.0
  0
ARC
  5
402
330
1F
100
AcDbEntity
  8
0
  6
Continuous
 62
     7
370
    50
100
AcDbCircle
 10
73.6386363657
 20
-203.1739584235
 30
0.0
 40
3.064806030411608
100
AcDbArc
 50
122.5201547614
 51
177.479845093
  0
LINE
  5
403
330
1F
100
AcDbEntity
  8
0
  6
Continuous
 62
     7
370
    50
100
AcDbLine
 10
87.5473573157
 20
-191.6092174255
 30
0.0
 11
71.9910081296
 21
-200.5897066556
 31
0.0
  0
ARC
  5
404
330
1F
100
AcDbEntity
  8
0
  6
Continuous
 62
     7
370
    50
100
AcDbCircle
 10
88.0965580546
 20
-192.2909962159
 30
0.0
 40
0.8754677439241484
100
AcDbArc
 50
351.1363811896
 51
128.8528670556
  0
LINE
  5
405
330
1F
100
AcDbEntity
  8
0
  6
Continuous
 62
     7
370
    50
100
AcDbLine
 10
88.9615708781
 20
-192.4258909375
 30
0.0
 11
88.9615708781
 21
-193.2424317494
 31
0.0
  0
LWPOLYLINE
  5
406
330
1F
100
AcDbEntity
  8
0
  6
Continuous
 62
     7
370
    50
100
AcDbPolyline
 90
       10
 70
   128
 43
0.0
 10
88.9615708781
 20
-193.2424317494
 10
88.9722318173
 20
-193.3060956716
 10
89.0029287683
 20
-193.3497719268
 10
89.0499592257
 20
-193.368192514
 10
89.1076506224
 20
-193.3591356386
 10
89.1690445244
 20
-193.3236936934
 10
89.226735921
 20
-193.2661415
 10
89.2737663785
 20
-193.1934207024
 10
89.3044633295
 20
-193.114302502
 10
89.3151242687
 20
-193.0383297214
  0
LINE
  5
407
330
1F
100
AcDbEntity
  8
0
  6
Continuous
 62
     7
370
    50
100
AcDbLine
 10
89.3151242687
 20
-193.0383297214
 30
0.0
 11
89.3151242687
 21
-192.6300593155
 31
0.0
  0
LINE
  5
408
330
1F
100
AcDbEntity
  8
0
  6
Continuous
 62
     7
370
    50
100
AcDbLine
 10
393.3710401789
 20
-17.1023152736
 30
0.0
 11
89.3151242687
 21
-192.6300593155
 31
0.0
  0
LINE
  5
409
330
1F
100
AcDbEntity
  8
0
  6
Continuous
 62
     7
370
    50
100
AcDbLine
 10
393.3710401789
 20
-17.5105856796
 30
0.0
 11
393.3710401789
 21
-17.1023152736
 31
0.0
  0
LWPOLYLINE
  5
40A
330
1F
100
AcDbEntity
  8
0
  6
Continuous
 62
     7
370
    50
100
AcDbPolyline
 90
       35
 70
   128
 43
0.0
 10
74.2891051685
 20
-268.9548017683
 10
74.0770635248
 20
-269.0658903414
 10
73.8668309457
 20
-269.1533902215
 10
73.6602010613
 20
-269.2165548904
 10
73.4589367651
 20
-269.2548454495
 10
73.2647551729
 20
-269.2679352172
 10
73.0793129738
 20
-269.2557125163
 10
72.9041922951
 20
-269.2182816265
 10
72.7408872047
 20
-269.1559618949
 10
72.5907909641
 20
-269.0692850116
 10
72.4551841415
 20
-268.9589904731
 10
72.3352236864
 20
-268.8260192736
 10
72.2319330593
 20
-268.6715058764
 10
72.1461934992
 20
-268.4967685355
 10
72.078736506
 20
-268.303298048
 10
72.0301375988
 20
-268.0927450362
 10
72.0008114064
 20
-267.8669058639
 10
71.9910081296
 20
-267.6277073114
 10
72.0008114064
 20
-267.3771901364
 10
72.0301375988
 20
-267.1174916632
 10
72.078736506
 20
-266.8508275474
 10
72.1461934992
 20
-266.5794728734
 10
72.2319330593
 20
-266.3057427435
 10
72.3352236864
 20
-266.0319725267
 10
72.4551841415
 20
-265.7604979339
 10
72.5907909641
 20
-265.4936350907
 10
72.7408872047
 20
-265.2336607767
 10
72.9041922951
 20
-264.9827930012
 10
73.0793129738
 20
-264.7431720794
 10
73.2647551729
 20
-264.5168423727
 10
73.4589367651
 20
-264.3057348463
 10
73.6602010613
 20
-264.1116505952
 10
73.8668309457
 20
-263.9362454778
 10
74.0770635248
 20
-263.7810159886
 10
74.2891051685
 20
-263.6472864911
  0
LINE
  5
40B
330
1F
100
AcDbEntity
  8
0
  6
Continuous
 62
     7
370
    50
100
AcDbLine
 10
74.2891051685
 20
-268.9548017683
 30
0.0
 11
77.4710856838
 21
-267.1178835167
 31
0.0
  0
LWPOLYLINE
  5
40C
330
1F
100
AcDbEntity
  8
0
  6
Continuous
 62
     7
370
    50
100
AcDbPolyline
 90
       35
 70
   128
 43
0.0
 10
77.4710856838
 20
-261.8103682395
 10
77.6831273275
 20
-261.6992796664
 10
77.8933599066
 20
-261.6117797863
 10
78.0999897909
 20
-261.5486151174
 10
78.3012540872
 20
-261.5103245583
 10
78.4954356793
 20
-261.4972347906
 10
78.6808778785
 20
-261.5094574915
 10
78.8559985572
 20
-261.5468883813
 10
79.0193036475
 20
-261.6092081129
 10
79.1693998881
 20
-261.6958849962
 10
79.3050067108
 20
-261.8061795347
 10
79.4249671658
 20
-261.9391507342
 10
79.5282577929
 20
-262.0936641314
 10
79.613997353
 20
-262.2684014723
 10
79.6814543463
 20
-262.4618719598
 10
79.7300532535
 20
-262.6724249716
 10
79.7593794458
 20
-262.8982641439
 10
79.7691827226
 20
-263.1374626964
 10
79.7593794458
 20
-263.3879798714
 10
79.7300532535
 20
-263.6476783446
 10
79.6814543463
 20
-263.9143424604
 10
79.613997353
 20
-264.1856971344
 10
79.5282577929
 20
-264.4594272643
 10
79.4249671658
 20
-264.7331974811
 10
79.3050067108
 20
-265.0046720739
 10
79.1693998881
 20
-265.2715349171
 10
79.0193036475
 20
-265.5315092311
 10
78.8559985572
 20
-265.7823770066
 10
78.6808778785
 20
-266.0219979284
 10
78.4954356793
 20
-266.2483276351
 10
78.3012540872
 20
-266.4594351615
 10
78.0999897909
 20
-266.6535194126
 10
77.8933599066
 20
-266.82892453
 10
77.6831273275
 20
-266.9841540191
 10
77.4710856838
 20
-267.1178835167
  0
LINE
  5
40D
330
1F
100
AcDbEntity
  8
0
  6
Continuous
 62
     7
370
    50
100
AcDbLine
 10
74.2891051685
 20
-263.6472864911
 30
0.0
 11
77.4710856838
 21
-261.8103682395
 31
0.0
  0
LINE
  5
40E
330
1F
100
AcDbEntity
  8
0
  6
Continuous
 62
     7
370
    50
100
AcDbLine
 10
74.2891051685
 20
-201.4268766254
 30
0.0
 11
77.4710856838
 21
-199.5899583738
 31
0.0
  0
LWPOLYLINE
  5
40F
330
1F
100
AcDbEntity
  8
0
  6
Continuous
 62
     7
370
    50
100
AcDbPolyline
 90
       35
 70
   128
 43
0.0
 10
74.2891051685
 20
-201.4268766254
 10
74.0770635248
 20
-201.560606123
 10
73.8668309457
 20
-201.7158356121
 10
73.6602010613
 20
-201.8912407295
 10
73.4589367651
 20
-202.0853249806
 10
73.2647551729
 20
-202.296432507
 10
73.0793129738
 20
-202.5227622137
 10
72.9041922951
 20
-202.7623831355
 10
72.7408872047
 20
-203.013250911
 10
72.5907909641
 20
-203.273225225
 10
72.4551841415
 20
-203.5400880682
 10
72.3352236864
 20
-203.811562661
 10
72.2319330593
 20
-204.0853328778
 10
72.1461934992
 20
-204.3590630077
 10
72.078736506
 20
-204.6304176817
 10
72.0301375988
 20
-204.8970817975
 10
72.0008114064
 20
-205.1567802707
 10
71.9910081296
 20
-205.4072974457
 10
72.0008114064
 20
-205.6464959982
 10
72.0301375988
 20
-205.8723351705
 10
72.078736506
 20
-206.0828881823
 10
72.1461934992
 20
-206.2763586698
 10
72.2319330593
 20
-206.4510960107
 10
72.3352236864
 20
-206.6056094079
 10
72.4551841415
 20
-206.7385806074
 10
72.5907909641
 20
-206.8488751459
 10
72.7408872047
 20
-206.9355520292
 10
72.9041922951
 20
-206.9978717608
 10
73.0793129738
 20
-207.0353026506
 10
73.2647551729
 20
-207.0475253515
 10
73.4589367651
 20
-207.0344355838
 10
73.6602010613
 20
-206.9961450247
 10
73.8668309457
 20
-206.9329803558
 10
74.0770635248
 20
-206.8454804757
 10
74.2891051685
 20
-206.7343919026
  0
LINE
  5
410
330
1F
100
AcDbEntity
  8
0
  6
Continuous
 62
     7
370
    50
100
AcDbLine
 10
74.2891051685
 20
-206.7343919026
 30
0.0
 11
77.4710856838
 21
-204.897473651
 31
0.0
  0
LWPOLYLINE
  5
411
330
1F
100
AcDbEntity
  8
0
  6
Continuous
 62
     7
370
    50
100
AcDbPolyline
 90
       35
 70
   128
 43
0.0
 10
77.4710856838
 20
-204.897473651
 10
77.6831273275
 20
-204.7637441535
 10
77.8933599066
 20
-204.6085146643
 10
78.0999897909
 20
-204.4331095469
 10
78.3012540872
 20
-204.2390252958
 10
78.4954356793
 20
-204.0279177694
 10
78.6808778785
 20
-203.8015880627
 10
78.8559985572
 20
-203.5619671409
 10
79.0193036475
 20
-203.3110993654
 10
79.1693998881
 20
-203.0511250514
 10
79.3050067108
 20
-202.7842622082
 10
79.4249671658
 20
-202.5127876154
 10
79.5282577929
 20
-202.2390173986
 10
79.613997353
 20
-201.9652872687
 10
79.6814543463
 20
-201.6939325947
 10
79.7300532535
 20
-201.4272684789
 10
79.7593794458
 20
-201.1675700057
 10
79.7691827226
 20
-200.9170528307
 10
79.7593794458
 20
-200.6778542782
 10
79.7300532535
 20
-200.4520151059
 10
79.6814543463
 20
-200.2414620941
 10
79.613997353
 20
-200.0479916066
 10
79.5282577929
 20
-199.8732542657
 10
79.4249671658
 20
-199.7187408685
 10
79.3050067108
 20
-199.585769669
 10
79.1693998881
 20
-199.4754751305
 10
79.0193036475
 20
-199.3887982472
 10
78.8559985572
 20
-199.3264785156
 10
78.6808778785
 20
-199.2890476258
 10
78.4954356793
 20
-199.2768249249
 10
78.3012540872
 20
-199.2899146926
 10
78.0999897909
 20
-199.3282052517
 10
77.8933599066
 20
-199.3913699206
 10
77.6831273275
 20
-199.4788698007
 10
77.4710856838
 20
-199.5899583738
  0
ARC
  5
412
330
1F
100
AcDbEntity
  8
0
  6
Continuous
 62
     7
370
    50
100
AcDbCircle
 10
109.1337646942
 20
-193.8678701179
 30
0.0
 40
2.142989601227813
100
AcDbArc
 50
122.4871280433
 51
177.512871811
  0
LINE
  5
413
330
1F
100
AcDbEntity
  8
0
  6
Continuous
 62
     7
370
    50
100
AcDbLine
 10
106.9927937983
 20
-233.3362775388
 30
0.0
 11
106.9927937983
 21
-193.7748752029
 31
0.0
  0
ARC
  5
414
330
1F
100
AcDbEntity
  8
0
  6
Continuous
 62
     7
370
    50
100
AcDbCircle
 10
107.5990757299
 20
-233.4293653363
 30
0.0
 40
0.6133865980029716
100
AcDbArc
 50
171.2710416901
 51
308.7182065551
  0
LINE
  5
415
330
1F
100
AcDbEntity
  8
0
  6
Continuous
 62
     7
370
    50
100
AcDbLine
 10
107.982743292
 20
-233.9079489971
 30
0.0
 11
374.7034211556
 21
-79.9333791074
 31
0.0
  0
ARC
  5
416
330
1F
100
AcDbEntity
  8
0
  6
Continuous
 62
     7
370
    50
100
AcDbCircle
 10
373.5523845005
 20
-78.1257325712
 30
0.0
 40
2.143005221910929
100
AcDbArc
 50
302.4873455707
 51
357.5126542837
  0
LINE
  5
417
330
1F
100
AcDbEntity
  8
0
  6
Continuous
 62
     7
370
    50
100
AcDbLine
 10
375.6933706492
 20
-78.2187362925
 30
0.0
 11
375.6933706492
 21
-38.6573339566
 31
0.0
  0
ARC
  5
418
330
1F
100
AcDbEntity
  8
0
  6
Continuous
 62
     7
370
    50
100
AcDbCircle
 10
375.087093803
 20
-38.5642373528
 30
0.0
 40
0.6133829080220832
100
AcDbArc
 50
351.2701565399
 51
128.7190917054
  0
LINE
  5
419
330
1F
100
AcDbEntity
  8
0
  6
Continuous
 62
     7
370
    50
100
AcDbLine
 10
107.982743292
 20
-192.060232388
 30
0.0
 11
374.7034211556
 21
-38.0856624982
 31
0.0
  0
LINE
  5
41A
330
1F
100
AcDbEntity
  8
0
  6
Continuous
 62
     7
370
    50
100
AcDbLine
 10
69.5161343954
 20
-202.4268903073
 30
0.0
 11
70.5767945672
 21
-203.0391963912
 31
0.0
  0
ARC
  5
41B
330
1F
100
AcDbEntity
  8
0
  6
Continuous
 62
     7
370
    50
100
AcDbCircle
 10
72.5779761939
 20
-202.5616523396
 30
0.0
 40
3.064806030411535
100
AcDbArc
 50
122.5201547614
 51
177.479845093
  0
LINE
  5
41C
330
1F
100
AcDbEntity
  8
0
  6
Continuous
 62
     7
370
    50
100
AcDbLine
 10
70.9303479578
 20
-199.9774005717
 30
0.0
 11
71.9910081296
 21
-200.5897066556
 31
0.0
  0
LINE
  5
41D
330
1F
100
AcDbEntity
  8
0
  6
Continuous
 62
     7
370
    50
100
AcDbLine
 10
69.5161343954
 20
-271.0163185057
 30
0.0
 11
70.5767945672
 21
-271.6286245896
 31
0.0
  0
LINE
  5
41E
330
1F
100
AcDbEntity
  8
0
  6
Continuous
 62
     7
370
    50
100
AcDbLine
 10
69.5161343954
 20
-202.4268903073
 30
0.0
 11
69.5161343954
 21
-271.0163185057
 31
0.0
  0
LINE
  5
41F
330
1F
100
AcDbEntity
  8
0
  6
Continuous
 62
     7
370
    50
100
AcDbLine
 10
86.4866971439
 20
-190.9969113417
 30
0.0
 11
87.5473573157
 21
-191.6092174255
 31
0.0
  0
LINE
  5
420
330
1F
100
AcDbEntity
  8
0
  6
Continuous
 62
     7
370
    50
100
AcDbLine
 10
86.4866971439
 20
-190.9969113417
 30
0.0
 11
70.9303479578
 21
-199.9774005717
 31
0.0
  0
LINE
  5
421
330
1F
100
AcDbEntity
  8
0
  6
Continuous
 62
     7
370
    50
100
AcDbLine
 10
73.2284449967
 20
-206.1220858188
 30
0.0
 11
74.2891051685
 21
-206.7343919026
 31
0.0
  0
ARC
  5
422
330
1F
100
AcDbEntity
  8
0
  6
Continuous
 62
     7
370
    50
100
AcDbCircle
 10
72.1124289567
 20
-204.308244253
 30
0.0
 40
2.129674394697574
100
AcDbArc
 50
272.9723006226
 51
301.6030536614
  0
LINE
  5
423
330
1F
100
AcDbEntity
  8
0
  6
Continuous
 62
     7
370
    50
100
AcDbLine
 10
76.410425512
 20
-204.2851675672
 30
0.0
 11
77.4710856838
 21
-204.897473651
 31
0.0
  0
ARC
  5
424
330
1F
100
AcDbEntity
  8
0
  6
Continuous
 62
     7
370
    50
100
AcDbCircle
 10
74.2583583563
 20
-200.4669510327
 30
0.0
 40
4.382940855945899
100
AcDbArc
 50
299.4069780698
 51
15.7534369329
  0
LINE
  5
425
330
1F
100
AcDbEntity
  8
0
  6
Continuous
 62
     7
370
    50
100
AcDbLine
 10
73.2284449967
 20
-206.1220858188
 30
0.0
 11
76.410425512
 21
-204.2851675672
 31
0.0
  0
ARC
  5
426
330
1F
100
AcDbEntity
  8
0
  6
Continuous
 62
     7
370
    50
100
AcDbCircle
 10
87.0744715904
 20
-191.8342079899
 30
0.0
 40
1.023007564533288
100
AcDbArc
 50
66.2419609643
 51
125.0684974648
  0
LWPOLYLINE
  5
427
330
1F
100
AcDbEntity
  8
0
  6
Continuous
 62
     7
370
    50
100
AcDbPolyline
 90
       26
 70
   128
 43
0.0
 10
89.3151242687
 20
-192.6300593155
 10
89.3049173935
 20
-192.4051191584
 10
89.2744146345
 20
-192.1709919492
 10
89.2239682302
 20
-191.9303813331
 10
89.1541607237
 20
-191.6860658239
 10
89.0657982354
 20
-191.4408667187
 10
88.9599011542
 20
-191.1976155182
 10
88.8376923542
 20
-190.9591212291
 10
88.7005830736
 20
-190.7281379266
 10
88.5501566174
 20
-190.5073329506
 10
88.3881500745
 20
-190.2992561041
 10
88.2164342578
 20
-190.106310209
 10
88.0369921003
 20
-189.9307233583
 10
87.8518957574
 20
-189.7745231869
 10
87.6632826774
 20
-189.6395134572
 10
87.4733309189
 20
-189.5272532293
 10
87.2842339996
 20
-189.4390388574
 10
87.0981755655
 20
-189.37588902
 10
86.9173041749
 20
-189.3385329564
 10
86.7437084874
 20
-189.3274020455
 10
86.5793931446
 20
-189.3426248243
 10
86.4262556207
 20
-189.3840255038
 10
86.2860643113
 20
-189.451125999
 10
86.1604381122
 20
-189.5431514492
 10
86.0508277246
 20
-189.6590391666
 10
85.9584989031
 20
-189.7974509076
  0
LWPOLYLINE
  5
428
330
1F
100
AcDbEntity
  8
0
  6
Continuous
 62
     7
370
    50
100
AcDbPolyline
 90
       23
 70
   128
 43
0.0
 10
393.3710401789
 20
-17.1023152736
 10
393.3608333037
 20
-16.8773751165
 10
393.3303305447
 20
-16.6432479074
 10
393.2798841404
 20
-16.4026372912
 10
393.2100766339
 20
-16.158321782
 10
393.1217141456
 20
-15.9131226768
 10
393.0158170644
 20
-15.6698714763
 10
392.8936082645
 20
-15.4313771872
 10
392.7564989838
 20
-15.2003938847
 10
392.6060725276
 20
-14.9795889087
 10
392.4440659847
 20
-14.7715120622
 10
392.272350168
 20
-14.5785661671
 10
392.0929080106
 20
-14.4029793164
 10
391.9078116676
 20
-14.246779145
 10
391.7191985876
 20
-14.1117694154
 10
391.5292468291
 20
-13.9995091874
 10
391.3401499098
 20
-13.9112948155
 10
391.1540914757
 20
-13.8481449782
 10
390.9732200851
 20
-13.8107889145
 10
390.7996243976
 20
-13.7996580036
 10
390.6353090548
 20
-13.8148807824
 10
390.4821715309
 20
-13.8562814619
 10
390.3533748101
 20
-13.9166829779
  0
LWPOLYLINE
  5
429
330
1F
100
AcDbEntity
  8
0
  6
Continuous
 62
     7
370
    50
100
AcDbPolyline
 90
       12
 70
   128
 43
0.0
 10
87.9432209852
 20
-191.1614877592
 10
87.9246797584
 20
-191.1368015032
 10
87.8193799598
 20
-191.012882675
 10
87.7064217317
 20
-190.9057621847
 10
87.5889852602
 20
-190.8184558647
 10
87.4703768102
 20
-190.7534217064
 10
87.3539356423
 20
-190.7124906584
 10
87.2429399998
 20
-190.696815079
 10
87.1405148149
 20
-190.706836293
 10
87.04954373
 20
-190.7422721666
 10
86.972587913
 20
-190.8021250507
 10
86.9579473347
 20
-190.8181989036
  0
LINE
  5
42A
330
1F
100
AcDbEntity
  8
0
  6
Continuous
 62
     7
370
    50
100
AcDbLine
 10
84.7183229274
 20
-192.0177720472
 30
0.0
 11
85.9584989031
 21
-189.7974509076
 31
0.0
  0
LWPOLYLINE
  5
42B
330
1F
100
AcDbEntity
  8
0
  6
Continuous
 62
     7
370
    50
100
AcDbPolyline
 90
        8
 70
   128
 43
0.0
 10
106.9927937983
 20
-193.7748752029
 10
107.2359638755
 20
-193.6789972473
 10
107.4382777944
 20
-193.5613269639
 10
107.6032738975
 20
-193.4117618643
 10
107.7012104821
 20
-193.2444895331
 10
107.7237351222
 20
-193.0760192109
 10
107.6714574053
 20
-192.9041332848
 10
107.6398414111
 20
-192.8522624847
  0
ARC
  5
42C
330
1F
100
AcDbEntity
  8
0
  6
Continuous
 62
     7
370
    50
100
AcDbCircle
 10
105.9751795338
 20
-231.9189948944
 30
0.0
 40
1.744771872035054
100
AcDbArc
 50
305.6784890995
 51
358.5769641606
  0
LINE
  5
42D
330
1F
100
AcDbEntity
  8
0
  6
Continuous
 62
     7
370
    50
100
AcDbLine
 10
107.2187890636
 20
-192.9173924518
 30
0.0
 11
107.6398414111
 21
-192.8522624847
 31
0.0
  0
ARC
  5
42E
330
1F
100
AcDbEntity
  8
0
  6
Continuous
 62
     7
370
    50
100
AcDbCircle
 10
372.8766656914
 20
-37.9041935484
 30
0.0
 40
1.835746852221043
100
AcDbArc
 50
315.9755391775
 51
354.3268792418
  0
LINE
  5
42F
330
1F
100
AcDbEntity
  8
0
  6
Continuous
 62
     7
370
    50
100
AcDbLine
 10
107.8501234411
 20
-192.9385492757
 30
0.0
 11
374.1966469272
 21
-39.1799741104
 31
0.0
  0
ARC
  5
430
330
1F
100
AcDbEntity
  8
0
  6
Continuous
 62
     7
370
    50
100
AcDbCircle
 10
106.8717094247
 20
-192.3416446524
 30
0.0
 40
1.146119154734457
100
AcDbArc
 50
328.6137330253
 51
14.2134474857
  0
LINE
  5
431
330
1F
100
AcDbEntity
  8
0
  6
Continuous
 62
     7
370
    50
100
AcDbLine
 10
107.5118251043
 20
-192.4697146242
 30
0.0
 11
107.8501234411
 21
-192.9385492757
 31
0.0
  0
LINE
  5
432
330
1F
100
AcDbEntity
  8
0
  6
Continuous
 62
     7
370
    50
100
AcDbLine
 10
374.1966469272
 20
-39.1799741104
 30
0.0
 11
370.703120881
 21
-41.8983029886
 31
0.0
  0
ARC
  5
433
330
1F
100
AcDbEntity
  8
0
  6
Continuous
 62
     7
370
    50
100
AcDbCircle
 10
362.9018202907
 20
-31.9288954804
 30
0.0
 40
12.65896429273555
100
AcDbArc
 50
300.5172516445
 51
308.0440327553
  0
LINE
  5
434
330
1F
100
AcDbEntity
  8
0
  6
Continuous
 62
     7
370
    50
100
AcDbLine
 10
109.3003523815
 20
-192.9462217735
 30
0.0
 11
369.3300141893
 21
-42.8342932341
 31
0.0
  0
ARC
  5
435
330
1F
100
AcDbEntity
  8
0
  6
Continuous
 62
     7
370
    50
100
AcDbCircle
 10
108.3486931344
 20
-191.7049401989
 30
0.0
 40
1.564108458512728
100
AcDbArc
 50
275.8000754009
 51
307.4764714295
  0
LINE
  5
436
330
1F
100
AcDbEntity
  8
0
  6
Continuous
 62
     7
370
    50
100
AcDbLine
 10
107.8501234411
 20
-192.9385492757
 30
0.0
 11
108.5067581915
 21
-193.2610413228
 31
0.0
  0
LINE
  5
437
330
1F
100
AcDbEntity
  8
0
  6
Continuous
 62
     7
370
    50
100
AcDbLine
 10
73.2284449967
 20
-268.3424956845
 30
0.0
 11
74.2891051685
 21
-268.9548017683
 31
0.0
  0
ARC
  5
438
330
1F
100
AcDbEntity
  8
0
  6
Continuous
 62
     7
370
    50
100
AcDbCircle
 10
72.1235424559
 20
-266.5643625046
 30
0.0
 40
2.093458198749273
100
AcDbArc
 50
272.7192202163
 51
301.8561340676
  0
ARC
  5
439
330
1F
100
AcDbEntity
  8
0
  6
Continuous
 62
     7
370
    50
100
AcDbCircle
 10
70.4792423841
 20
-271.1321363275
 30
0.0
 40
0.9700467852510405
100
AcDbArc
 50
173.1428667726
 51
235.544952834
  0
LINE
  5
43A
330
1F
100
AcDbEntity
  8
0
  6
Continuous
 62
     7
370
    50
100
AcDbLine
 10
76.410425512
 20
-266.5055774329
 30
0.0
 11
77.4710856838
 21
-267.1178835167
 31
0.0
  0
ARC
  5
43B
330
1F
100
AcDbEntity
  8
0
  6
Continuous
 62
     7
370
    50
100
AcDbCircle
 10
74.2583583563
 20
-262.6873608984
 30
0.0
 40
4.382940855947186
100
AcDbArc
 50
299.4069780698
 51
15.7534369328
  0
LINE
  5
43C
330
1F
100
AcDbEntity
  8
0
  6
Continuous
 62
     7
370
    50
100
AcDbLine
 10
73.2284449967
 20
-268.3424956845
 30
0.0
 11
76.410425512
 21
-266.5055774329
 31
0.0
  0
ARC
  5
43D
330
1F
100
AcDbEntity
  8
0
  6
Continuous
 62
     7
370
    50
100
AcDbCircle
 10
392.1497689738
 20
-85.0121087121
 30
0.0
 40
1.228920918333388
100
AcDbArc
 50
304.9159547339
 51
6.3962256594
  0
ARC
  5
43E
330
1F
100
AcDbEntity
  8
0
  6
Continuous
 62
     7
370
    50
100
AcDbCircle
 10
87.9624709478
 20
-260.4998202855
 30
0.0
 40
1.35611780372981
100
AcDbArc
 50
314.5102197019
 51
4.0963837298
  0
LINE
  5
43F
330
1F
100
AcDbEntity
  8
0
  6
Continuous
 62
     7
370
    50
100
AcDbLine
 10
106.9928083164
 20
-233.3364717
 30
0.0
 11
107.982743292
 21
-233.9079489971
 31
0.0
  0
ARC
  5
440
330
1F
100
AcDbEntity
  8
0
  6
Continuous
 62
     7
370
    50
100
AcDbCircle
 10
102.5160349257
 20
-233.1034266973
 30
0.0
 40
5.525591053695299
100
AcDbArc
 50
351.6280139865
 51
19.489419242
  0
ARC
  5
441
330
1F
100
AcDbEntity
  8
0
  6
Continuous
 62
     7
370
    50
100
AcDbCircle
 10
371.0395006513
 20
-81.2689767434
 30
0.0
 40
3.899760826879402
100
AcDbArc
 50
20.0281593269
 51
77.1766509583
  0
ARC
  5
442
330
1F
100
AcDbEntity
  8
0
  6
Continuous
 62
     7
370
    50
100
AcDbCircle
 10
368.6972267715
 20
-74.1395996026
 30
0.0
 40
3.166724668631947
100
AcDbArc
 50
251.7361385815
 51
270.6246832468
  0
ARC
  5
443
330
1F
100
AcDbEntity
  8
0
  6
Continuous
 62
     7
370
    50
100
AcDbCircle
 10
368.8482896975
 20
-106.4804093132
 30
0.0
 40
29.17450601060916
100
AcDbArc
 50
83.9858203974
 51
90.2288684923
  0
LINE
  5
444
330
1F
100
AcDbEntity
  8
0
  6
Continuous
 62
     7
370
    50
100
AcDbLine
 10
374.7033866167
 20
-38.0858283395
 30
0.0
 11
375.6933706492
 21
-38.6573339566
 31
0.0
  0
ARC
  5
445
330
1F
100
AcDbEntity
  8
0
  6
Continuous
 62
     7
370
    50
100
AcDbCircle
 10
373.2950534564
 20
-35.6000226279
 30
0.0
 40
3.885753198300975
100
AcDbArc
 50
278.2992532244
 51
308.1125188987
  0
ARC
  5
446
330
1F
100
AcDbEntity
  8
0
  6
Continuous
 62
     7
370
    50
100
AcDbCircle
 10
374.645373611
 20
-74.5250826312
 30
0.0
 40
3.839449851384928
100
AcDbArc
 50
250.9062434009
 51
285.8401825746
  0
ARC
  5
447
330
1F
100
AcDbEntity
  8
0
  6
Continuous
 62
     7
370
    50
100
AcDbCircle
 10
371.6360132622
 20
-73.9422505707
 30
0.0
 40
1.794129352433036
100
AcDbArc
 50
182.1276481482
 51
226.8481632598
  0
LINE
  5
448
330
1F
100
AcDbEntity
  8
0
  6
Continuous
 62
     7
370
    50
100
AcDbLine
 10
369.8431207916
 20
-74.0088592943
 30
0.0
 11
369.8431207916
 21
-42.5514640187
 31
0.0
  0
LINE
  5
449
330
1F
100
AcDbEntity
  8
0
  6
Continuous
 62
     7
370
    50
100
AcDbLine
 10
369.8431207916
 20
-42.5514640187
 30
0.0
 11
369.8435987721
 21
-42.5152122354
 31
0.0
  0
LINE
  5
44A
330
1F
100
AcDbEntity
  8
0
  6
Continuous
 62
     7
370
    50
100
AcDbLine
 10
373.1522081522
 20
-77.9944872719
 30
0.0
 11
370.4089470404
 21
-75.2511465255
 31
0.0
  0
LINE
  5
44B
330
1F
100
AcDbEntity
  8
0
  6
Continuous
 62
     7
370
    50
100
AcDbLine
 10
394.0781469601
 20
-13.4281470202
 30
0.0
 11
395.1388071318
 21
-14.0404531041
 31
0.0
  0
ARC
  5
44C
330
1F
100
AcDbEntity
  8
0
  6
Continuous
 62
     7
370
    50
100
AcDbCircle
 10
395.762413517
 20
-16.042771219
 30
0.0
 40
3.110146867248161
100
AcDbArc
 50
122.7884828733
 51
164.5370547412
  0
LINE
  5
44D
330
1F
100
AcDbEntity
  8
0
  6
Continuous
 62
     7
370
    50
100
AcDbLine
 10
409.6344961462
 20
-4.4476577902
 30
0.0
 11
410.695156318
 21
-5.059963874
 31
0.0
  0
LINE
  5
44E
330
1F
100
AcDbEntity
  8
0
  6
Continuous
 62
     7
370
    50
100
AcDbLine
 10
394.0781469601
 20
-13.4281470202
 30
0.0
 11
409.6344961462
 21
-4.4476577902
 31
0.0
  0
LINE
  5
44F
330
1F
100
AcDbEntity
  8
0
  6
Continuous
 62
     7
370
    50
100
AcDbLine
 10
404.154418592
 20
-15.0825876522
 30
0.0
 11
405.2150787638
 21
-15.6948937361
 31
0.0
  0
ARC
  5
450
330
1F
100
AcDbEntity
  8
0
  6
Continuous
 62
     7
370
    50
100
AcDbCircle
 10
403.0495160512
 20
-13.3044544724
 30
0.0
 40
2.093458198750502
100
AcDbArc
 50
272.7192202163
 51
301.8561340676
  0
LINE
  5
451
330
1F
100
AcDbEntity
  8
0
  6
Continuous
 62
     7
370
    50
100
AcDbLine
 10
407.3363991073
 20
-13.2456694006
 30
0.0
 11
408.3970592791
 21
-13.8579754845
 31
0.0
  0
ARC
  5
452
330
1F
100
AcDbEntity
  8
0
  6
Continuous
 62
     7
370
    50
100
AcDbCircle
 10
405.1843319516
 20
-9.4274528662
 30
0.0
 40
4.382940855944266
100
AcDbArc
 50
299.4069780698
 51
15.7534369329
  0
ARC
  5
453
330
1F
100
AcDbEntity
  8
0
  6
Continuous
 62
     7
370
    50
100
AcDbCircle
 10
410.2162089148
 20
-5.2237403009
 30
0.0
 40
0.9698937099568882
100
AcDbArc
 50
64.457059734
 51
126.8533986951
  0
LINE
  5
454
330
1F
100
AcDbEntity
  8
0
  6
Continuous
 62
     7
370
    50
100
AcDbLine
 10
407.3363991073
 20
-13.2456694006
 30
0.0
 11
404.154418592
 21
-15.0825876522
 31
0.0
  0
ARC
  5
455
330
1F
100
AcDbEntity
  8
0
  6
Continuous
 62
     7
370
    50
100
AcDbCircle
 10
372.2737539741
 20
-77.3872480669
 30
0.0
 40
2.389354742252837
100
AcDbArc
 50
320.5335775081
 51
336.1760089846
  0
LINE
  5
456
330
1F
100
AcDbEntity
  8
0
  6
Continuous
 62
     7
370
    50
100
AcDbLine
 10
404.154418592
 20
-77.3029975179
 30
0.0
 11
405.2150787638
 21
-77.9153036018
 31
0.0
  0
ARC
  5
457
330
1F
100
AcDbEntity
  8
0
  6
Continuous
 62
     7
370
    50
100
AcDbCircle
 10
403.038402552
 20
-75.4891559521
 30
0.0
 40
2.129674394697803
100
AcDbArc
 50
272.9723006225
 51
301.6030536614
  0
LINE
  5
458
330
1F
100
AcDbEntity
  8
0
  6
Continuous
 62
     7
370
    50
100
AcDbLine
 10
407.3363991073
 20
-75.4660792663
 30
0.0
 11
408.3970592791
 21
-76.0783853502
 31
0.0
  0
ARC
  5
459
330
1F
100
AcDbEntity
  8
0
  6
Continuous
 62
     7
370
    50
100
AcDbCircle
 10
405.1843319516
 20
-71.6478627319
 30
0.0
 40
4.382940855944297
100
AcDbArc
 50
299.4069780698
 51
15.7534369329
  0
LINE
  5
45A
330
1F
100
AcDbEntity
  8
0
  6
Continuous
 62
     7
370
    50
100
AcDbLine
 10
407.3363991073
 20
-75.4660792663
 30
0.0
 11
404.154418592
 21
-77.3029975179
 31
0.0
  0
LINE
  5
45B
330
1F
100
AcDbEntity
  8
0
  6
Continuous
 62
     8
370
    50
100
AcDbLine
 10
88.9615708781
 20
-192.4259572875
 30
0.0
 11
89.3151242687
 21
-192.6300593155
 31
0.0
  0
LINE
  5
45C
330
1F
100
AcDbEntity
  8
0
  6
Continuous
 62
     8
370
    50
100
AcDbLine
 10
86.8698147145
 20
-190.8368096009
 30
0.0
 11
85.9584989031
 21
-189.7974509076
 31
0.0
  0
LINE
  5
45D
330
1F
100
AcDbEntity
  8
0
  6
Continuous
 62
     8
370
    50
100
AcDbLine
 10
88.9615708781
 20
-192.8342276935
 30
0.0
 11
89.3151242687
 21
-193.0383297214
 31
0.0
  0
LINE
  5
45E
330
1F
100
AcDbEntity
  8
0
  6
Continuous
 62
     8
370
    50
100
AcDbLine
 10
87.0461423118
 20
-190.8071637562
 30
0.0
 11
87.2374854029
 21
-190.6967037409
 31
0.0
  0
LINE
  5
45F
330
1F
100
AcDbEntity
  8
0
  6
Continuous
 62
     8
370
    50
100
AcDbLine
 10
89.1383188422
 20
-259.8926086959
 30
0.0
 11
89.3151242687
 21
-259.994676296
 31
0.0
  0
LINE
  5
460
330
1F
100
AcDbEntity
  8
0
  6
Continuous
 62
     8
370
    50
100
AcDbLine
 10
88.9615708781
 20
-260.198844674
 30
0.0
 11
89.3151242687
 21
-260.402946702
 31
0.0
  0
LINE
  5
461
330
1F
100
AcDbEntity
  8
0
  6
Continuous
 62
     8
370
    50
100
AcDbLine
 10
371.90503646
 20
-77.4664798965
 30
0.0
 11
107.7250268454
 21
-229.9743532257
 31
0.0
  0
LINE
  5
462
330
1F
100
AcDbEntity
  8
0
  6
Continuous
 62
     8
370
    50
100
AcDbLine
 10
373.2785560835
 20
-39.8943448695
 30
0.0
 11
373.2785560835
 21
-78.0770912135
 31
0.0
  0
LINE
  5
463
330
1F
100
AcDbEntity
  8
0
  6
Continuous
 62
     8
370
    50
100
AcDbLine
 10
393.2234834759
 20
-16.2006581403
 30
0.0
 11
393.7245935695
 21
-16.4899428397
 31
0.0
  0
LINE
  5
464
330
1F
100
AcDbEntity
  8
0
  6
Continuous
 62
     8
370
    50
100
AcDbLine
 10
393.3710401789
 20
-17.1023816237
 30
0.0
 11
393.7245935695
 21
-17.3064836516
 31
0.0
  0
LINE
  5
465
330
1F
100
AcDbEntity
  8
0
  6
Continuous
 62
     8
370
    50
100
AcDbLine
 10
393.547788143
 20
-84.160762626
 30
0.0
 11
393.7245935695
 21
-84.2628302262
 31
0.0
  0
LINE
  5
466
330
1F
100
AcDbEntity
  8
0
  6
Continuous
 62
     8
370
    50
100
AcDbLine
 10
393.3710401779
 20
-84.8752690096
 30
0.0
 11
393.7245935695
 21
-85.0793710381
 31
0.0
  0
ENDSEC
  0
SECTION
  2
OBJECTS
  0
DICTIONARY
  5
C
330
0
100
AcDbDictionary
281
     1
  3
ACAD_DETAILVIEWSTYLE
350
46E
  3
ACAD_GROUP
350
D
  3
ACAD_LAYOUT
350
1A
  3
ACAD_MATERIAL
350
43
  3
ACAD_MLEADERSTYLE
350
6B
  3
ACAD_MLINESTYLE
350
17
  3
ACAD_PLOTSETTINGS
350
19
  3
ACAD_PLOTSTYLENAME
350
E
  3
ACAD_SCALELIST
350
47
  3
ACAD_SECTIONVIEWSTYLE
350
46F
  3
ACAD_TABLESTYLE
350
69
  3
ACAD_VISUALSTYLE
350
2A
  3
ACDB_RECOMPOSE_DATA
350
46B
  3
AcDbVariableDictionary
350
467
  0
SUN
  5
6D
330
29
100
AcDbSun
 90
        1
290
     0
 63
     7
421
 16777215
 40
1.0
291
     1
 91
  2455826
 92
 54000000
292
     0
 70
     2
 71
   256
280
     1
  0
DICTIONARY
  5
46E
102
{ACAD_REACTORS
330
C
102
}
330
C
100
AcDbDictionary
281
     1
  0
DICTIONARY
  5
D
102
{ACAD_REACTORS
330
C
102
}
330
C
100
AcDbDictionary
281
     1
  0
DICTIONARY
  5
1A
102
{ACAD_REACTORS
330
C
102
}
330
C
100
AcDbDictionary
281
     1
  3
Layout1
350
1E
  3
Layout2
350
26
  3
Model
350
22
  0
DICTIONARY
  5
43
102
{ACAD_REACTORS
330
C
102
}
330
C
100
AcDbDictionary
281
     1
  3
ByBlock
350
45
  3
ByLayer
350
44
  3
Global
350
46
  0
DICTIONARY
  5
6B
102
{ACAD_REACTORS
330
C
102
}
330
C
100
AcDbDictionary
281
     1
  3
Standard
350
6C
  0
DICTIONARY
  5
17
102
{ACAD_REACTORS
330
C
102
}
330
C
100
AcDbDictionary
281
     1
  3
Standard
350
18
  0
DICTIONARY
  5
19
102
{ACAD_REACTORS
330
C
102
}
330
C
100
AcDbDictionary
281
     1
  0
ACDBDICTIONARYWDFLT
  5
E
102
{ACAD_REACTORS
330
C
102
}
330
C
100
AcDbDictionary
281
     1
  3
Normal
350
F
100
AcDbDictionaryWithDefault
340
F
  0
DICTIONARY
  5
47
102
{ACAD_REACTORS
330
C
102
}
330
C
100
AcDbDictionary
281
     1
  3
A0
350
48
  3
A1
350
49
  3
A2
350
4A
  3
A3
350
4B
  3
A4
350
4C
  3
A5
350
4D
  3
A6
350
4E
  3
A7
350
4F
  3
A8
350
50
  3
A9
350
51
  3
B0
350
52
  3
B1
350
53
  3
B2
350
54
  3
B3
350
55
  3
B4
350
56
  3
B5
350
57
  3
B6
350
58
  3
B7
350
59
  3
B8
350
5A
  3
B9
350
5B
  3
C0
350
5C
  3
C1
350
5D
  3
C2
350
5E
  3
C3
350
5F
  3
C4
350
60
  3
C5
350
61
  3
C6
350
62
  3
C7
350
63
  3
C8
350
64
  3
C9
350
65
  3
D0
350
66
  3
D1
350
67
  3
D2
350
68
  0
DICTIONARY
  5
46F
102
{ACAD_REACTORS
330
C
102
}
330
C
100
AcDbDictionary
281
     1
  0
DICTIONARY
  5
69
102
{ACAD_REACTORS
330
C
102
}
330
C
100
AcDbDictionary
281
     1
  3
Standard
350
6A
  0
DICTIONARY
  5
2A
102
{ACAD_REACTORS
330
C
102
}
330
C
100
AcDbDictionary
281
     1
  3
2dWireframe
350
2F
  3
Basic
350
32
  3
Brighten
350
36
  3
ColorChange
350
3A
  3
Conceptual
350
34
  3
Dim
350
35
  3
EdgeColorOff
350
3D
  3
Facepattern
350
39
  3
Flat
350
2B
  3
FlatWithEdges
350
2C
  3
Gouraud
350
2D
  3
GouraudWithEdges
350
2E
  3
Hidden
350
31
  3
JitterOff
350
3B
  3
Linepattern
350
38
  3
OverhangOff
350
3C
  3
Realistic
350
33
  3
Shaded
350
42
  3
Shaded with edges
350
41
  3
Shades of Gray
350
3E
  3
Sketchy
350
3F
  3
Thicken
350
37
  3
Wireframe
350
30
  3
X-Ray
350
40
  0
XRECORD
  5
46B
102
{ACAD_REACTORS
330
C
102
}
330
C
100
AcDbXrecord
280
     1
 90
        1
330
6A
  0
DICTIONARY
  5
467
102
{ACAD_REACTORS
330
C
102
}
330
C
100
AcDbDictionary
281
     1
  3
CANNOSCALE
350
468
  3
CENTEREXE
350
470
  3
CENTERLTYPEFILE
350
471
  3
CMLEADERSTYLE
350
46D
  3
CTABLESTYLE
350
46C
  0
LAYOUT
  5
1E
102
{ACAD_REACTORS
330
1A
102
}
330
1A
100
AcDbPlotSettings
  1

  2
none_device
  4

  6

 40
0.0
 41
0.0
 42
0.0
 43
0.0
 44
0.0
 45
0.0
 46
0.0
 47
0.0
 48
0.0
 49
0.0
140
0.0
141
0.0
142
1.0
143
1.0
 70
   688
 72
     1
 73
     0
 74
     5
  7

 75
    16
 76
     0
 77
     2
 78
   300
147
1.0
148
0.0
149
0.0
100
AcDbLayout
  1
Layout1
 70
     1
 71
     1
 10
0.0
 20
0.0
 11
420.0
 21
297.0
 12
0.0
 22
0.0
 32
0.0
 14
1.0000000000E+20
 24
1.0000000000E+20
 34
1.0000000000E+20
 15
-1.0000000000E+20
 25
-1.0000000000E+20
 35
-1.0000000000E+20
146
0.0
 13
0.0
 23
0.0
 33
0.0
 16
1.0
 26
0.0
 36
0.0
 17
0.0
 27
1.0
 37
0.0
 76
     0
330
1B
  0
LAYOUT
  5
26
102
{ACAD_REACTORS
330
1A
102
}
330
1A
100
AcDbPlotSettings
  1

  2
none_device
  4

  6

 40
0.0
 41
0.0
 42
0.0
 43
0.0
 44
0.0
 45
0.0
 46
0.0
 47
0.0
 48
0.0
 49
0.0
140
0.0
141
0.0
142
1.0
143
1.0
 70
   688
 72
     1
 73
     0
 74
     5
  7

 75
    16
 76
     0
 77
     2
 78
   300
147
1.0
148
0.0
149
0.0
100
AcDbLayout
  1
Layout2
 70
     1
 71
     2
 10
0.0
 20
0.0
 11
0.0
 21
0.0
 12
0.0
 22
0.0
 32
0.0
 14
0.0
 24
0.0
 34
0.0
 15
0.0
 25
0.0
 35
0.0
146
0.0
 13
0.0
 23
0.0
 33
0.0
 16
1.0
 26
0.0
 36
0.0
 17
0.0
 27
1.0
 37
0.0
 76
     0
330
23
  0
LAYOUT
  5
22
102
{ACAD_REACTORS
330
1A
102
}
330
1A
100
AcDbPlotSettings
  1

  2
none_device
  4
Letter_(8.50_x_11.00_Inches)
  6

 40
6.35
 41
6.35
 42
6.35000508
 43
6.35000508
 44
215.9
 45
279.4
 46
0.0
 47
0.0
 48
0.0
 49
0.0
140
0.0
141
0.0
142
1.0
143
1.0
 70
  1712
 72
     1
 73
     0
 74
     0
  7

 75
     0
 76
     0
 77
     2
 78
   300
147
1.0
148
0.0
149
0.0
100
AcDbLayout
  1
Model
 70
     1
 71
     0
 10
0.0
 20
0.0
 11
431.8
 21
279.4
 12
0.0
 22
0.0
 32
0.0
 14
0.0
 24
0.0
 34
0.0
 15
431.8
 25
279.4
 35
0.0
146
0.0
 13
0.0
 23
0.0
 33
0.0
 16
1.0
 26
0.0
 36
0.0
 17
0.0
 27
1.0
 37
0.0
 76
     0
330
1F
331
29
  0
MATERIAL
  5
45
102
{ACAD_REACTORS
330
43
102
}
330
43
100
AcDbMaterial
  1
ByBlock
 72
     1
 94
      127
  0
MATERIAL
  5
44
102
{ACAD_REACTORS
330
43
102
}
330
43
100
AcDbMaterial
  1
ByLayer
 72
     1
 94
      127
  0
MATERIAL
  5
46
102
{ACAD_REACTORS
330
43
102
}
330
43
100
AcDbMaterial
  1
Global
 72
     1
 94
      127
  0
MLEADERSTYLE
  5
6C
102
{ACAD_REACTORS
330
6B
102
}
330
6B
100
AcDbMLeaderStyle
179
     2
170
     2
171
     1
172
     0
 90
        2
 40
0.0
 41
0.0
173
     1
 91
-1056964608
340
14
 92
       -2
290
     1
 42
2.0
291
     1
 43
8.0
  3
Standard
341
0
 44
4.0
300

342
11
174
     1
178
     6
175
     1
176
     0
 93
-1056964608
 45
4.0
292
     0
297
     0
 46
4.0
343
0
 94
-1056964608
 47
1.0
 49
1.0
140
1.0
293
     1
141
0.0
294
     1
177
     0
142
1.0
295
     0
296
     0
143
3.75
271
     0
272
     9
273
     9
298
     0
  0
MLINESTYLE
  5
18
102
{ACAD_REACTORS
330
17
102
}
330
17
100
AcDbMlineStyle
  2
Standard
 70
     0
  3

 62
   256
 51
90.0
 52
90.0
 71
     2
 49
0.5
 62
   256
  6
BYLAYER
 49
-0.5
 62
   256
  6
BYLAYER
  0
ACDBPLACEHOLDER
  5
F
102
{ACAD_REACTORS
330
E
102
}
330
E
  0
SCALE
  5
48
102
{ACAD_REACTORS
330
47
102
}
330
47
100
AcDbScale
 70
     0
300
1:1
140
1.0
141
1.0
290
     1
  0
SCALE
  5
49
102
{ACAD_REACTORS
330
47
102
}
330
47
100
AcDbScale
 70
     0
300
1:2
140
1.0
141
2.0
290
     0
  0
SCALE
  5
4A
102
{ACAD_REACTORS
330
47
102
}
330
47
100
AcDbScale
 70
     0
300
1:4
140
1.0
141
4.0
290
     0
  0
SCALE
  5
4B
102
{ACAD_REACTORS
330
47
102
}
330
47
100
AcDbScale
 70
     0
300
1:5
140
1.0
141
5.0
290
     0
  0
SCALE
  5
4C
102
{ACAD_REACTORS
330
47
102
}
330
47
100
AcDbScale
 70
     0
300
1:8
140
1.0
141
8.0
290
     0
  0
SCALE
  5
4D
102
{ACAD_REACTORS
330
47
102
}
330
47
100
AcDbScale
 70
     0
300
1:10
140
1.0
141
10.0
290
     0
  0
SCALE
  5
4E
102
{ACAD_REACTORS
330
47
102
}
330
47
100
AcDbScale
 70
     0
300
1:16
140
1.0
141
16.0
290
     0
  0
SCALE
  5
4F
102
{ACAD_REACTORS
330
47
102
}
330
47
100
AcDbScale
 70
     0
300
1:20
140
1.0
141
20.0
290
     0
  0
SCALE
  5
50
102
{ACAD_REACTORS
330
47
102
}
330
47
100
AcDbScale
 70
     0
300
1:30
140
1.0
141
30.0
290
     0
  0
SCALE
  5
51
102
{ACAD_REACTORS
330
47
102
}
330
47
100
AcDbScale
 70
     0
300
1:40
140
1.0
141
40.0
290
     0
  0
SCALE
  5
52
102
{ACAD_REACTORS
330
47
102
}
330
47
100
AcDbScale
 70
     0
300
1:50
140
1.0
141
50.0
290
     0
  0
SCALE
  5
53
102
{ACAD_REACTORS
330
47
102
}
330
47
100
AcDbScale
 70
     0
300
1:100
140
1.0
141
100.0
290
     0
  0
SCALE
  5
54
102
{ACAD_REACTORS
330
47
102
}
330
47
100
AcDbScale
 70
     0
300
2:1
140
2.0
141
1.0
290
     0
  0
SCALE
  5
55
102
{ACAD_REACTORS
330
47
102
}
330
47
100
AcDbScale
 70
     0
300
4:1
140
4.0
141
1.0
290
     0
  0
SCALE
  5
56
102
{ACAD_REACTORS
330
47
102
}
330
47
100
AcDbScale
 70
     0
300
8:1
140
8.0
141
1.0
290
     0
  0
SCALE
  5
57
102
{ACAD_REACTORS
330
47
102
}
330
47
100
AcDbScale
 70
     0
300
10:1
140
10.0
141
1.0
290
     0
  0
SCALE
  5
58
102
{ACAD_REACTORS
330
47
102
}
330
47
100
AcDbScale
 70
     0
300
100:1
140
100.0
141
1.0
290
     0
  0
SCALE
  5
59
102
{ACAD_REACTORS
330
47
102
}
330
47
100
AcDbScale
 70
     0
300
1/128" = 1'-0"
140
0.0078125
141
12.0
290
     0
  0
SCALE
  5
5A
102
{ACAD_REACTORS
330
47
102
}
330
47
100
AcDbScale
 70
     0
300
1/64" = 1'-0"
140
0.015625
141
12.0
290
     0
  0
SCALE
  5
5B
102
{ACAD_REACTORS
330
47
102
}
330
47
100
AcDbScale
 70
     0
300
1/32" = 1'-0"
140
0.03125
141
12.0
290
     0
  0
SCALE
  5
5C
102
{ACAD_REACTORS
330
47
102
}
330
47
100
AcDbScale
 70
     0
300
1/16" = 1'-0"
140
0.0625
141
12.0
290
     0
  0
SCALE
  5
5D
102
{ACAD_REACTORS
330
47
102
}
330
47
100
AcDbScale
 70
     0
300
3/32" = 1'-0"
140
0.09375
141
12.0
290
     0
  0
SCALE
  5
5E
102
{ACAD_REACTORS
330
47
102
}
330
47
100
AcDbScale
 70
     0
300
1/8" = 1'-0"
140
0.125
141
12.0
290
     0
  0
SCALE
  5
5F
102
{ACAD_REACTORS
330
47
102
}
330
47
100
AcDbScale
 70
     0
300
3/16" = 1'-0"
140
0.1875
141
12.0
290
     0
  0
SCALE
  5
60
102
{ACAD_REACTORS
330
47
102
}
330
47
100
AcDbScale
 70
     0
300
1/4" = 1'-0"
140
0.25
141
12.0
290
     0
  0
SCALE
  5
61
102
{ACAD_REACTORS
330
47
102
}
330
47
100
AcDbScale
 70
     0
300
3/8" = 1'-0"
140
0.375
141
12.0
290
     0
  0
SCALE
  5
62
102
{ACAD_REACTORS
330
47
102
}
330
47
100
AcDbScale
 70
     0
300
1/2" = 1'-0"
140
0.5
141
12.0
290
     0
  0
SCALE
  5
63
102
{ACAD_REACTORS
330
47
102
}
330
47
100
AcDbScale
 70
     0
300
3/4" = 1'-0"
140
0.75
141
12.0
290
     0
  0
SCALE
  5
64
102
{ACAD_REACTORS
330
47
102
}
330
47
100
AcDbScale
 70
     0
300
1" = 1'-0"
140
1.0
141
12.0
290
     0
  0
SCALE
  5
65
102
{ACAD_REACTORS
330
47
102
}
330
47
100
AcDbScale
 70
     0
300
1-1/2" = 1'-0"
140
1.5
141
12.0
290
     0
  0
SCALE
  5
66
102
{ACAD_REACTORS
330
47
102
}
330
47
100
AcDbScale
 70
     0
300
3" = 1'-0"
140
3.0
141
12.0
290
     0
  0
SCALE
  5
67
102
{ACAD_REACTORS
330
47
102
}
330
47
100
AcDbScale
 70
     0
300
6" = 1'-0"
140
6.0
141
12.0
290
     0
  0
SCALE
  5
68
102
{ACAD_REACTORS
330
47
102
}
330
47
100
AcDbScale
 70
     0
300
1'-0" = 1'-0"
140
12.0
141
12.0
290
     0
  0
TABLESTYLE
  5
6A
102
{ACAD_REACTORS
330
69
102
}
102
{ACAD_XDICTIONARY
360
469
102
}
330
69
100
AcDbTableStyle
  3
Standard
 70
     0
 71
     0
 40
0.06
 41
0.06
280
     0
281
     0
  7
Standard
140
4.5
170
     2
 62
     0
 63
   257
283
     0
 90
        4
 91
        0
  1

274
    -2
284
     1
 64
     0
275
    -2
285
     1
 65
     0
276
    -2
286
     1
 66
     0
277
    -2
287
     1
 67
     0
278
    -2
288
     1
 68
     0
279
    -2
289
     1
 69
     0
  7
Standard
140
6.0
170
     5
 62
     0
 63
   257
283
     0
 90
        4
 91
        0
  1

274
    -2
284
     1
 64
     0
275
    -2
285
     1
 65
     0
276
    -2
286
     1
 66
     0
277
    -2
287
     1
 67
     0
278
    -2
288
     1
 68
     0
279
    -2
289
     1
 69
     0
  7
Standard
140
4.5
170
     5
 62
     0
 63
   257
283
     0
 90
        4
 91
        0
  1

274
    -2
284
     1
 64
     0
275
    -2
285
     1
 65
     0
276
    -2
286
     1
 66
     0
277
    -2
287
     1
 67
     0
278
    -2
288
     1
 68
     0
279
    -2
289
     1
 69
     0
  0
VISUALSTYLE
  5
2F
102
{ACAD_REACTORS
330
2A
102
}
330
2A
100
AcDbVisualStyle
  2
2dWireframe
 70
     4
177
     3
291
     0
 70
    58
 90
        0
176
     1
 90
        2
176
     1
 90
        0
176
     1
 90
        0
176
     1
 40
0.6
176
     1
 40
30.0
176
     1
 62
     7
420
 16777215
176
     1
 90
        1
176
     1
 90
        4
176
     1
 62
     7
176
     1
 62
   257
176
     1
 90
        1
176
     1
 90
        1
176
     1
 40
1.0
176
     1
 90
        0
176
     1
 62
   257
176
     1
 40
1.0
176
     1
 90
        1
176
     1
 90
        6
176
     1
 90
        2
176
     1
 62
     7
176
     1
 90
        5
176
     1
 90
        0
176
     1
 90
        0
176
     1
290
     0
176
     1
 90
        1
176
     1
 40
0.0
176
     1
 90
        0
176
     1
290
     1
176
     1
290
     1
176
     1
290
     0
176
     1
290
     0
176
     1
290
     0
176
     1
290
     0
176
     1
290
     0
176
     1
290
     0
176
     1
290
     0
176
     1
 90
       50
176
     1
 40
0.0
176
     1
 40
1.0
176
     1
 90
        0
176
     1
 62
    18
420
        0
176
     1
 90
       50
176
     1
 90
        3
176
     1
 62
     5
420
      255
176
     1
290
     0
176
     1
 90
       50
176
     1
 90
       50
176
     1
 90
       50
176
     1
290
     0
176
     1
 90
       50
176
     1
 62
   256
176
     0
 40
1.0
176
     0
 90
        2
176
     1
  1
strokes_ogs.tif
176
     1
290
     0
176
     1
 40
1.0
176
     1
 40
1.0
176
     1
  0
VISUALSTYLE
  5
32
102
{ACAD_REACTORS
330
2A
102
}
330
2A
100
AcDbVisualStyle
  2
Basic
 70
     7
177
     3
291
     1
 70
    58
 90
        1
176
     1
 90
        0
176
     1
 90
        1
176
     1
 90
        0
176
     1
 40
0.6
176
     1
 40
30.0
176
     1
 62
     7
420
 16777215
176
     1
 90
        0
176
     1
 90
        4
176
     1
 62
     7
176
     1
 62
   257
176
     1
 90
        1
176
     1
 90
        1
176
     1
 40
1.0
176
     1
 90
        8
176
     1
 62
     7
176
     1
 40
1.0
176
     1
 90
        1
176
     1
 90
        6
176
     1
 90
        2
176
     1
 62
     7
176
     1
 90
        5
176
     1
 90
        0
176
     1
 90
        0
176
     1
290
     0
176
     1
 90
        1
176
     1
 40
0.0
176
     1
 90
        0
176
     1
290
     0
176
     1
290
     1
176
     1
290
     1
176
     1
290
     0
176
     1
290
     0
176
     1
290
     0
176
     1
290
     0
176
     1
290
     0
176
     1
290
     0
176
     1
 90
       50
176
     1
 40
0.0
176
     1
 40
1.0
176
     1
 90
        0
176
     1
 62
    18
420
        0
176
     1
 90
       50
176
     1
 90
        3
176
     1
 62
     5
420
      255
176
     1
290
     0
176
     1
 90
       50
176
     1
 90
       50
176
     1
 90
       50
176
     1
290
     0
176
     1
 90
       50
176
     1
 62
   256
176
     0
 40
1.0
176
     0
 90
        2
176
     1
  1
strokes_ogs.tif
176
     1
290
     0
176
     1
 40
1.0
176
     1
 40
1.0
176
     1
  0
VISUALSTYLE
  5
36
102
{ACAD_REACTORS
330
2A
102
}
330
2A
100
AcDbVisualStyle
  2
Brighten
 70
    12
177
     3
291
     1
 70
    58
 90
        2
176
     1
 90
        2
176
     1
 90
        0
176
     1
 90
        0
176
     1
 40
0.6
176
     1
 40
30.0
176
     1
 62
     7
420
 16777215
176
     1
 90
        1
176
     1
 90
        4
176
     1
 62
     7
176
     1
 62
   257
176
     1
 90
        1
176
     1
 90
        1
176
     1
 40
1.0
176
     1
 90
        8
176
     1
 62
     7
176
     1
 40
1.0
176
     1
 90
        1
176
     1
 90
        6
176
     1
 90
        2
176
     1
 62
     7
176
     1
 90
        5
176
     1
 90
        0
176
     1
 90
        0
176
     1
290
     0
176
     1
 90
        1
176
     1
 40
50.0
176
     1
 90
        0
176
     1
290
     0
176
     1
290
     1
176
     1
290
     1
176
     1
290
     0
176
     1
290
     0
176
     1
290
     0
176
     1
290
     0
176
     1
290
     0
176
     1
290
     0
176
     1
 90
       50
176
     1
 40
0.0
176
     1
 40
1.0
176
     1
 90
        0
176
     1
 62
    18
420
        0
176
     1
 90
       50
176
     1
 90
        3
176
     1
 62
     5
420
      255
176
     1
290
     0
176
     1
 90
       50
176
     1
 90
       50
176
     1
 90
       50
176
     1
290
     0
176
     1
 90
       50
176
     1
 62
   256
176
     0
 40
1.0
176
     0
 90
        2
176
     1
  1
strokes_ogs.tif
176
     1
290
     0
176
     1
 40
1.0
176
     1
 40
1.0
176
     1
  0
VISUALSTYLE
  5
3A
102
{ACAD_REACTORS
330
2A
102
}
330
2A
100
AcDbVisualStyle
  2
ColorChange
 70
    16
177
     3
291
     1
 70
    58
 90
        2
176
     1
 90
        2
176
     1
 90
        3
176
     1
 90
        0
176
     1
 40
0.6
176
     1
 40
30.0
176
     1
 62
     8
420
  8421504
176
     1
 90
        1
176
     1
 90
        4
176
     1
 62
     7
176
     1
 62
   257
176
     1
 90
        1
176
     1
 90
        1
176
     1
 40
1.0
176
     1
 90
        8
176
     1
 62
     8
420
  8421504
176
     1
 40
1.0
176
     1
 90
        1
176
     1
 90
        6
176
     1
 90
        2
176
     1
 62
     7
176
     1
 90
        5
176
     1
 90
        0
176
     1
 90
        0
176
     1
290
     0
176
     1
 90
        1
176
     1
 40
0.0
176
     1
 90
        0
176
     1
290
     0
176
     1
290
     1
176
     1
290
     1
176
     1
290
     0
176
     1
290
     0
176
     1
290
     0
176
     1
290
     0
176
     1
290
     0
176
     1
290
     0
176
     1
 90
       50
176
     1
 40
0.0
176
     1
 40
1.0
176
     1
 90
        0
176
     1
 62
    18
420
        0
176
     1
 90
       50
176
     1
 90
        3
176
     1
 62
     5
420
      255
176
     1
290
     0
176
     1
 90
       50
176
     1
 90
       50
176
     1
 90
       50
176
     1
290
     0
176
     1
 90
       50
176
     1
 62
   256
176
     0
 40
1.0
176
     0
 90
        2
176
     1
  1
strokes_ogs.tif
176
     1
290
     0
176
     1
 40
1.0
176
     1
 40
1.0
176
     1
  0
VISUALSTYLE
  5
34
102
{ACAD_REACTORS
330
2A
102
}
330
2A
100
AcDbVisualStyle
  2
Conceptual
 70
     9
177
     3
291
     0
 70
    58
 90
        3
176
     1
 90
        2
176
     1
 90
        0
176
     1
 90
        0
176
     1
 40
0.6
176
     1
 40
30.0
176
     1
 62
     7
420
 16777215
176
     1
 90
        2
176
     1
 90
        2
176
     1
 62
     7
176
     1
 62
   257
176
     1
 90
        1
176
     1
 90
        1
176
     1
 40
179.0
176
     1
 90
        8
176
     1
 62
     7
176
     1
 40
1.0
176
     1
 90
        1
176
     1
 90
        6
176
     1
 90
        2
176
     1
 62
     7
176
     1
 90
        3
176
     1
 90
        0
176
     1
 90
        0
176
     1
290
     0
176
     1
 90
        1
176
     1
 40
0.0
176
     1
 90
        0
176
     1
290
     0
176
     1
290
     1
176
     1
290
     1
176
     1
290
     0
176
     1
290
     0
176
     1
290
     0
176
     1
290
     0
176
     1
290
     0
176
     1
290
     0
176
     1
 90
       50
176
     1
 40
0.0
176
     1
 40
1.0
176
     1
 90
        0
176
     1
 62
    18
420
        0
176
     1
 90
       50
176
     1
 90
        3
176
     1
 62
     5
420
      255
176
     1
290
     0
176
     1
 90
       50
176
     1
 90
       50
176
     1
 90
       50
176
     1
290
     0
176
     1
 90
       50
176
     1
 62
   256
176
     0
 40
1.0
176
     0
 90
        2
176
     1
  1
strokes_ogs.tif
176
     1
290
     0
176
     1
 40
1.0
176
     1
 40
1.0
176
     1
  0
VISUALSTYLE
  5
35
102
{ACAD_REACTORS
330
2A
102
}
330
2A
100
AcDbVisualStyle
  2
Dim
 70
    11
177
     3
291
     1
 70
    58
 90
        2
176
     1
 90
        2
176
     1
 90
        0
176
     1
 90
        0
176
     1
 40
0.6
176
     1
 40
30.0
176
     1
 62
     7
420
 16777215
176
     1
 90
        1
176
     1
 90
        4
176
     1
 62
     7
176
     1
 62
   257
176
     1
 90
        1
176
     1
 90
        1
176
     1
 40
1.0
176
     1
 90
        8
176
     1
 62
     7
176
     1
 40
1.0
176
     1
 90
        1
176
     1
 90
        6
176
     1
 90
        2
176
     1
 62
     7
176
     1
 90
        5
176
     1
 90
        0
176
     1
 90
        0
176
     1
290
     0
176
     1
 90
        1
176
     1
 40
-50.0
176
     1
 90
        0
176
     1
290
     0
176
     1
290
     1
176
     1
290
     1
176
     1
290
     0
176
     1
290
     0
176
     1
290
     0
176
     1
290
     0
176
     1
290
     0
176
     1
290
     0
176
     1
 90
       50
176
     1
 40
0.0
176
     1
 40
1.0
176
     1
 90
        0
176
     1
 62
    18
420
        0
176
     1
 90
       50
176
     1
 90
        3
176
     1
 62
     5
420
      255
176
     1
290
     0
176
     1
 90
       50
176
     1
 90
       50
176
     1
 90
       50
176
     1
290
     0
176
     1
 90
       50
176
     1
 62
   256
176
     0
 40
1.0
176
     0
 90
        2
176
     1
  1
strokes_ogs.tif
176
     1
290
     0
176
     1
 40
1.0
176
     1
 40
1.0
176
     1
  0
VISUALSTYLE
  5
3D
102
{ACAD_REACTORS
330
2A
102
}
330
2A
100
AcDbVisualStyle
  2
EdgeColorOff
 70
    22
177
     3
291
     1
 70
    58
 90
        2
176
     0
 90
        2
176
     0
 90
        0
176
     0
 90
        0
176
     0
 40
0.6
176
     0
 40
30.0
176
     0
 62
     7
420
 16777215
176
     0
 90
        1
176
     0
 90
        4
176
     0
 62
     7
176
     0
 62
   257
176
     0
 90
        1
176
     0
 90
        1
176
     0
 40
1.0
176
     0
 90
        8
176
     2
 62
     7
176
     0
 40
1.0
176
     0
 90
        1
176
     0
 90
        6
176
     0
 90
        2
176
     0
 62
     7
176
     0
 90
        5
176
     0
 90
        0
176
     0
 90
        0
176
     0
290
     0
176
     0
 90
        1
176
     0
 40
0.0
176
     0
 90
        0
176
     0
290
     0
176
     0
290
     1
176
     0
290
     1
176
     0
290
     0
176
     0
290
     0
176
     0
290
     0
176
     0
290
     0
176
     0
290
     0
176
     0
290
     0
176
     0
 90
       50
176
     0
 40
0.0
176
     0
 40
1.0
176
     0
 90
        0
176
     0
 62
    18
420
        0
176
     0
 90
       50
176
     0
 90
        3
176
     0
 62
     5
420
      255
176
     0
290
     0
176
     0
 90
       50
176
     0
 90
       50
176
     0
 90
       50
176
     0
290
     0
176
     0
 90
       50
176
     0
 62
   256
176
     0
 40
1.0
176
     0
 90
        2
176
     0
  1
strokes_ogs.tif
176
     0
290
     0
176
     0
 40
1.0
176
     0
 40
1.0
176
     0
  0
VISUALSTYLE
  5
39
102
{ACAD_REACTORS
330
2A
102
}
330
2A
100
AcDbVisualStyle
  2
Facepattern
 70
    15
177
     3
291
     1
 70
    58
 90
        2
176
     1
 90
        2
176
     1
 90
        0
176
     1
 90
        0
176
     1
 40
0.6
176
     1
 40
30.0
176
     1
 62
     7
420
 16777215
176
     1
 90
        1
176
     1
 90
        4
176
     1
 62
     7
176
     1
 62
   257
176
     1
 90
        1
176
     1
 90
        1
176
     1
 40
1.0
176
     1
 90
        8
176
     1
 62
     7
176
     1
 40
1.0
176
     1
 90
        1
176
     1
 90
        6
176
     1
 90
        2
176
     1
 62
     7
176
     1
 90
        5
176
     1
 90
        0
176
     1
 90
        0
176
     1
290
     0
176
     1
 90
        1
176
     1
 40
0.0
176
     1
 90
        0
176
     1
290
     0
176
     1
290
     1
176
     1
290
     1
176
     1
290
     0
176
     1
290
     0
176
     1
290
     0
176
     1
290
     0
176
     1
290
     0
176
     1
290
     0
176
     1
 90
       50
176
     1
 40
0.0
176
     1
 40
1.0
176
     1
 90
        0
176
     1
 62
    18
420
        0
176
     1
 90
       50
176
     1
 90
        3
176
     1
 62
     5
420
      255
176
     1
290
     0
176
     1
 90
       50
176
     1
 90
       50
176
     1
 90
       50
176
     1
290
     0
176
     1
 90
       50
176
     1
 62
   256
176
     0
 40
1.0
176
     0
 90
        2
176
     1
  1
strokes_ogs.tif
176
     1
290
     0
176
     1
 40
1.0
176
     1
 40
1.0
176
     1
  0
VISUALSTYLE
  5
2B
102
{ACAD_REACTORS
330
2A
102
}
330
2A
100
AcDbVisualStyle
  2
Flat
 70
     0
177
     3
291
     1
 70
    58
 90
        2
176
     1
 90
        1
176
     1
 90
        1
176
     1
 90
        2
176
     1
 40
0.6
176
     1
 40
30.0
176
     1
 62
     7
420
 16777215
176
     1
 90
        0
176
     1
 90
        0
176
     1
 62
     7
176
     1
 62
   257
176
     1
 90
        1
176
     1
 90
        1
176
     1
 40
1.0
176
     1
 90
        8
176
     1
 62
     7
176
     1
 40
1.0
176
     1
 90
        1
176
     1
 90
        6
176
     1
 90
        2
176
     1
 62
     7
176
     1
 90
        5
176
     1
 90
        0
176
     1
 90
        0
176
     1
290
     0
176
     1
 90
       13
176
     1
 40
0.0
176
     1
 90
        0
176
     1
290
     0
176
     1
290
     1
176
     1
290
     1
176
     1
290
     0
176
     1
290
     0
176
     1
290
     0
176
     1
290
     0
176
     1
290
     0
176
     1
290
     0
176
     1
 90
       50
176
     1
 40
0.0
176
     1
 40
1.0
176
     1
 90
        0
176
     1
 62
    18
420
        0
176
     1
 90
       50
176
     1
 90
        3
176
     1
 62
     5
420
      255
176
     1
290
     0
176
     1
 90
       50
176
     1
 90
       50
176
     1
 90
       50
176
     1
290
     0
176
     1
 90
       50
176
     1
 62
   256
176
     0
 40
1.0
176
     0
 90
        2
176
     1
  1
strokes_ogs.tif
176
     1
290
     0
176
     1
 40
1.0
176
     1
 40
1.0
176
     1
  0
VISUALSTYLE
  5
2C
102
{ACAD_REACTORS
330
2A
102
}
330
2A
100
AcDbVisualStyle
  2
FlatWithEdges
 70
     1
177
     3
291
     1
 70
    58
 90
        2
176
     1
 90
        1
176
     1
 90
        1
176
     1
 90
        2
176
     1
 40
0.6
176
     1
 40
30.0
176
     1
 62
     7
420
 16777215
176
     1
 90
        1
176
     1
 90
        0
176
     1
 62
     7
176
     1
 62
   257
176
     1
 90
        1
176
     1
 90
        1
176
     1
 40
1.0
176
     1
 90
        0
176
     1
 62
   257
176
     1
 40
1.0
176
     1
 90
        1
176
     1
 90
        6
176
     1
 90
        2
176
     1
 62
     7
176
     1
 90
        5
176
     1
 90
        0
176
     1
 90
        0
176
     1
290
     0
176
     1
 90
       13
176
     1
 40
0.0
176
     1
 90
        0
176
     1
290
     0
176
     1
290
     1
176
     1
290
     1
176
     1
290
     0
176
     1
290
     0
176
     1
290
     0
176
     1
290
     0
176
     1
290
     0
176
     1
290
     0
176
     1
 90
       50
176
     1
 40
0.0
176
     1
 40
1.0
176
     1
 90
        0
176
     1
 62
    18
420
        0
176
     1
 90
       50
176
     1
 90
        3
176
     1
 62
     5
420
      255
176
     1
290
     0
176
     1
 90
       50
176
     1
 90
       50
176
     1
 90
       50
176
     1
290
     0
176
     1
 90
       50
176
     1
 62
   256
176
     0
 40
1.0
176
     0
 90
        2
176
     1
  1
strokes_ogs.tif
176
     1
290
     0
176
     1
 40
1.0
176
     1
 40
1.0
176
     1
  0
VISUALSTYLE
  5
2D
102
{ACAD_REACTORS
330
2A
102
}
330
2A
100
AcDbVisualStyle
  2
Gouraud
 70
     2
177
     3
291
     1
 70
    58
 90
        2
176
     1
 90
        2
176
     1
 90
        1
176
     1
 90
        2
176
     1
 40
0.6
176
     1
 40
30.0
176
     1
 62
     7
420
 16777215
176
     1
 90
        0
176
     1
 90
        0
176
     1
 62
     7
176
     1
 62
   257
176
     1
 90
        1
176
     1
 90
        1
176
     1
 40
1.0
176
     1
 90
        0
176
     1
 62
     7
176
     1
 40
1.0
176
     1
 90
        1
176
     1
 90
        6
176
     1
 90
        2
176
     1
 62
     7
176
     1
 90
        5
176
     1
 90
        0
176
     1
 90
        0
176
     1
290
     0
176
     1
 90
       13
176
     1
 40
0.0
176
     1
 90
        0
176
     1
290
     0
176
     1
290
     1
176
     1
290
     1
176
     1
290
     0
176
     1
290
     0
176
     1
290
     0
176
     1
290
     0
176
     1
290
     0
176
     1
290
     0
176
     1
 90
       50
176
     1
 40
0.0
176
     1
 40
1.0
176
     1
 90
        0
176
     1
 62
    18
420
        0
176
     1
 90
       50
176
     1
 90
        3
176
     1
 62
     5
420
      255
176
     1
290
     0
176
     1
 90
       50
176
     1
 90
       50
176
     1
 90
       50
176
     1
290
     0
176
     1
 90
       50
176
     1
 62
   256
176
     0
 40
1.0
176
     0
 90
        2
176
     1
  1
strokes_ogs.tif
176
     1
290
     0
176
     1
 40
1.0
176
     1
 40
1.0
176
     1
  0
VISUALSTYLE
  5
2E
102
{ACAD_REACTORS
330
2A
102
}
330
2A
100
AcDbVisualStyle
  2
GouraudWithEdges
 70
     3
177
     3
291
     1
 70
    58
 90
        2
176
     1
 90
        2
176
     1
 90
        1
176
     1
 90
        2
176
     1
 40
0.6
176
     1
 40
30.0
176
     1
 62
     7
420
 16777215
176
     1
 90
        1
176
     1
 90
        0
176
     1
 62
     7
176
     1
 62
   257
176
     1
 90
        1
176
     1
 90
        1
176
     1
 40
1.0
176
     1
 90
        0
176
     1
 62
   257
176
     1
 40
1.0
176
     1
 90
        1
176
     1
 90
        6
176
     1
 90
        2
176
     1
 62
     7
176
     1
 90
        5
176
     1
 90
        0
176
     1
 90
        0
176
     1
290
     0
176
     1
 90
       13
176
     1
 40
0.0
176
     1
 90
        0
176
     1
290
     0
176
     1
290
     1
176
     1
290
     1
176
     1
290
     0
176
     1
290
     0
176
     1
290
     0
176
     1
290
     0
176
     1
290
     0
176
     1
290
     0
176
     1
 90
       50
176
     1
 40
0.0
176
     1
 40
1.0
176
     1
 90
        0
176
     1
 62
    18
420
        0
176
     1
 90
       50
176
     1
 90
        3
176
     1
 62
     5
420
      255
176
     1
290
     0
176
     1
 90
       50
176
     1
 90
       50
176
     1
 90
       50
176
     1
290
     0
176
     1
 90
       50
176
     1
 62
   256
176
     0
 40
1.0
176
     0
 90
        2
176
     1
  1
strokes_ogs.tif
176
     1
290
     0
176
     1
 40
1.0
176
     1
 40
1.0
176
     1
  0
VISUALSTYLE
  5
31
102
{ACAD_REACTORS
330
2A
102
}
330
2A
100
AcDbVisualStyle
  2
Hidden
 70
     6
177
     3
291
     0
 70
    58
 90
        1
176
     1
 90
        2
176
     1
 90
        2
176
     1
 90
        0
176
     1
 40
0.6
176
     1
 40
30.0
176
     1
 62
     7
420
 16777215
176
     1
 90
        2
176
     1
 90
        2
176
     1
 62
     7
176
     1
 62
   257
176
     1
 90
        2
176
     1
 90
        1
176
     1
 40
40.0
176
     1
 90
        0
176
     1
 62
   257
176
     1
 40
1.0
176
     1
 90
        1
176
     1
 90
        6
176
     1
 90
        2
176
     1
 62
     7
176
     1
 90
        3
176
     1
 90
        0
176
     1
 90
        0
176
     1
290
     0
176
     1
 90
        1
176
     1
 40
0.0
176
     1
 90
        0
176
     1
290
     0
176
     1
290
     1
176
     1
290
     1
176
     1
290
     0
176
     1
290
     0
176
     1
290
     0
176
     1
290
     0
176
     1
290
     0
176
     1
290
     0
176
     1
 90
       50
176
     1
 40
0.0
176
     1
 40
1.0
176
     1
 90
        0
176
     1
 62
    18
420
        0
176
     1
 90
       50
176
     1
 90
        3
176
     1
 62
     5
420
      255
176
     1
290
     0
176
     1
 90
       50
176
     1
 90
       50
176
     1
 90
       50
176
     1
290
     0
176
     1
 90
       50
176
     1
 62
   256
176
     0
 40
1.0
176
     0
 90
        2
176
     1
  1
strokes_ogs.tif
176
     1
290
     0
176
     1
 40
1.0
176
     1
 40
1.0
176
     1
  0
VISUALSTYLE
  5
3B
102
{ACAD_REACTORS
330
2A
102
}
330
2A
100
AcDbVisualStyle
  2
JitterOff
 70
    20
177
     3
291
     1
 70
    58
 90
        2
176
     0
 90
        2
176
     0
 90
        0
176
     0
 90
        0
176
     0
 40
0.6
176
     0
 40
30.0
176
     0
 62
     7
420
 16777215
176
     0
 90
        1
176
     0
 90
        4
176
     0
 62
     7
176
     0
 62
   257
176
     0
 90
        1
176
     0
 90
        1
176
     0
 40
1.0
176
     0
 90
       10
176
     2
 62
     7
176
     0
 40
1.0
176
     0
 90
        1
176
     0
 90
        6
176
     0
 90
        2
176
     0
 62
     7
176
     0
 90
        5
176
     0
 90
        0
176
     0
 90
        0
176
     0
290
     0
176
     0
 90
        1
176
     0
 40
0.0
176
     0
 90
        0
176
     0
290
     0
176
     0
290
     1
176
     0
290
     1
176
     0
290
     0
176
     0
290
     0
176
     0
290
     0
176
     0
290
     0
176
     0
290
     0
176
     0
290
     0
176
     0
 90
       50
176
     0
 40
0.0
176
     0
 40
1.0
176
     0
 90
        0
176
     0
 62
    18
420
        0
176
     0
 90
       50
176
     0
 90
        3
176
     0
 62
     5
420
      255
176
     0
290
     0
176
     0
 90
       50
176
     0
 90
       50
176
     0
 90
       50
176
     0
290
     0
176
     0
 90
       50
176
     0
 62
   256
176
     0
 40
1.0
176
     0
 90
        2
176
     0
  1
strokes_ogs.tif
176
     0
290
     0
176
     0
 40
1.0
176
     0
 40
1.0
176
     0
  0
VISUALSTYLE
  5
38
102
{ACAD_REACTORS
330
2A
102
}
330
2A
100
AcDbVisualStyle
  2
Linepattern
 70
    14
177
     3
291
     1
 70
    58
 90
        2
176
     1
 90
        2
176
     1
 90
        0
176
     1
 90
        0
176
     1
 40
0.6
176
     1
 40
30.0
176
     1
 62
     7
420
 16777215
176
     1
 90
        1
176
     1
 90
        4
176
     1
 62
     7
176
     1
 62
   257
176
     1
 90
        7
176
     1
 90
        7
176
     1
 40
1.0
176
     1
 90
        8
176
     1
 62
     7
176
     1
 40
1.0
176
     1
 90
        1
176
     1
 90
        6
176
     1
 90
        2
176
     1
 62
     7
176
     1
 90
        5
176
     1
 90
        0
176
     1
 90
        0
176
     1
290
     0
176
     1
 90
        1
176
     1
 40
0.0
176
     1
 90
        0
176
     1
290
     0
176
     1
290
     1
176
     1
290
     1
176
     1
290
     0
176
     1
290
     0
176
     1
290
     0
176
     1
290
     0
176
     1
290
     0
176
     1
290
     0
176
     1
 90
       50
176
     1
 40
0.0
176
     1
 40
1.0
176
     1
 90
        0
176
     1
 62
    18
420
        0
176
     1
 90
       50
176
     1
 90
        3
176
     1
 62
     5
420
      255
176
     1
290
     0
176
     1
 90
       50
176
     1
 90
       50
176
     1
 90
       50
176
     1
290
     0
176
     1
 90
       50
176
     1
 62
   256
176
     0
 40
1.0
176
     0
 90
        2
176
     1
  1
strokes_ogs.tif
176
     1
290
     0
176
     1
 40
1.0
176
     1
 40
1.0
176
     1
  0
VISUALSTYLE
  5
3C
102
{ACAD_REACTORS
330
2A
102
}
330
2A
100
AcDbVisualStyle
  2
OverhangOff
 70
    21
177
     3
291
     1
 70
    58
 90
        2
176
     0
 90
        2
176
     0
 90
        0
176
     0
 90
        0
176
     0
 40
0.6
176
     0
 40
30.0
176
     0
 62
     7
420
 16777215
176
     0
 90
        1
176
     0
 90
        4
176
     0
 62
     7
176
     0
 62
   257
176
     0
 90
        1
176
     0
 90
        1
176
     0
 40
1.0
176
     0
 90
        9
176
     2
 62
     7
176
     0
 40
1.0
176
     0
 90
        1
176
     0
 90
        6
176
     0
 90
        2
176
     0
 62
     7
176
     0
 90
        5
176
     0
 90
        0
176
     0
 90
        0
176
     0
290
     0
176
     0
 90
        1
176
     0
 40
0.0
176
     0
 90
        0
176
     0
290
     0
176
     0
290
     1
176
     0
290
     1
176
     0
290
     0
176
     0
290
     0
176
     0
290
     0
176
     0
290
     0
176
     0
290
     0
176
     0
290
     0
176
     0
 90
       50
176
     0
 40
0.0
176
     0
 40
1.0
176
     0
 90
        0
176
     0
 62
    18
420
        0
176
     0
 90
       50
176
     0
 90
        3
176
     0
 62
     5
420
      255
176
     0
290
     0
176
     0
 90
       50
176
     0
 90
       50
176
     0
 90
       50
176
     0
290
     0
176
     0
 90
       50
176
     0
 62
   256
176
     0
 40
1.0
176
     0
 90
        2
176
     0
  1
strokes_ogs.tif
176
     0
290
     0
176
     0
 40
1.0
176
     0
 40
1.0
176
     0
  0
VISUALSTYLE
  5
33
102
{ACAD_REACTORS
330
2A
102
}
330
2A
100
AcDbVisualStyle
  2
Realistic
 70
     8
177
     3
291
     0
 70
    58
 90
        2
176
     1
 90
        3
176
     1
 90
        0
176
     1
 90
        2
176
     1
 40
0.6
176
     1
 40
30.0
176
     1
 62
     7
420
 16777215
176
     1
 90
        0
176
     1
 90
        0
176
     1
 62
     7
176
     1
 62
   257
176
     1
 90
        1
176
     1
 90
        1
176
     1
 40
1.0
176
     1
 90
        8
176
     1
 62
   257
176
     1
 40
1.0
176
     1
 90
        1
176
     1
 90
        6
176
     1
 90
        2
176
     1
 62
     7
176
     1
 90
        3
176
     1
 90
        0
176
     1
 90
        0
176
     1
290
     0
176
     1
 90
       13
176
     1
 40
0.0
176
     1
 90
        0
176
     1
290
     0
176
     1
290
     1
176
     1
290
     1
176
     1
290
     0
176
     1
290
     0
176
     1
290
     0
176
     1
290
     0
176
     1
290
     0
176
     1
290
     0
176
     1
 90
       50
176
     1
 40
0.0
176
     1
 40
1.0
176
     1
 90
        0
176
     1
 62
    18
420
        0
176
     1
 90
       50
176
     1
 90
        3
176
     1
 62
     5
420
      255
176
     1
290
     0
176
     1
 90
       50
176
     1
 90
       50
176
     1
 90
       50
176
     1
290
     0
176
     1
 90
       50
176
     1
 62
   256
176
     0
 40
1.0
176
     0
 90
        2
176
     1
  1
strokes_ogs.tif
176
     1
290
     0
176
     1
 40
1.0
176
     1
 40
1.0
176
     1
  0
VISUALSTYLE
  5
42
102
{ACAD_REACTORS
330
2A
102
}
330
2A
100
AcDbVisualStyle
  2
Shaded
 70
    27
177
     3
291
     0
 70
    58
 90
        2
176
     1
 90
        2
176
     1
 90
        1
176
     1
 90
        2
176
     1
 40
0.6
176
     1
 40
30.0
176
     1
 62
     7
420
 16777215
176
     1
 90
        0
176
     1
 90
        4
176
     1
 62
     7
176
     1
 62
   257
176
     1
 90
        1
176
     1
 90
        1
176
     1
 40
1.0
176
     1
 90
        8
176
     1
 62
   257
176
     1
 40
1.0
176
     1
 90
        1
176
     1
 90
        6
176
     1
 90
        2
176
     1
 62
     8
420
  7895160
176
     1
 90
        3
176
     1
 90
        0
176
     1
 90
        0
176
     1
290
     0
176
     1
 90
        5
176
     1
 40
0.0
176
     1
 90
        0
176
     1
290
     0
176
     1
290
     1
176
     1
290
     1
176
     1
290
     0
176
     1
290
     0
176
     1
290
     0
176
     1
290
     0
176
     1
290
     0
176
     1
290
     0
176
     1
 90
       50
176
     1
 40
0.0
176
     1
 40
1.0
176
     1
 90
        0
176
     1
 62
    18
420
        0
176
     1
 90
       50
176
     1
 90
        3
176
     1
 62
     5
420
      255
176
     1
290
     0
176
     1
 90
       50
176
     1
 90
       50
176
     1
 90
       50
176
     1
290
     0
176
     1
 90
       50
176
     1
 62
   256
176
     0
 40
1.0
176
     0
 90
        2
176
     1
  1
strokes_ogs.tif
176
     1
290
     0
176
     1
 40
1.0
176
     1
 40
1.0
176
     1
  0
VISUALSTYLE
  5
41
102
{ACAD_REACTORS
330
2A
102
}
330
2A
100
AcDbVisualStyle
  2
Shaded with edges
 70
    26
177
     3
291
     0
 70
    58
 90
        2
176
     1
 90
        2
176
     1
 90
        1
176
     1
 90
        2
176
     1
 40
0.6
176
     1
 40
30.0
176
     1
 62
     7
420
 16777215
176
     1
 90
        1
176
     1
 90
       10
176
     1
 62
     7
176
     1
 62
   257
176
     1
 90
        2
176
     1
 90
        1
176
     1
 40
1.0
176
     1
 90
        8
176
     1
 62
   257
176
     1
 40
1.0
176
     1
 90
        1
176
     1
 90
        6
176
     1
 90
        2
176
     1
 62
     7
176
     1
 90
        3
176
     1
 90
        0
176
     1
 90
        0
176
     1
290
     0
176
     1
 90
        5
176
     1
 40
0.0
176
     1
 90
        0
176
     1
290
     0
176
     1
290
     1
176
     1
290
     1
176
     1
290
     0
176
     1
290
     0
176
     1
290
     0
176
     1
290
     0
176
     1
290
     0
176
     1
290
     0
176
     1
 90
       50
176
     1
 40
0.0
176
     1
 40
1.0
176
     1
 90
        0
176
     1
 62
    18
420
        0
176
     1
 90
       50
176
     1
 90
        3
176
     1
 62
     5
420
      255
176
     1
290
     0
176
     1
 90
       50
176
     1
 90
       50
176
     1
 90
       50
176
     1
290
     0
176
     1
 90
       50
176
     1
 62
   256
176
     0
 40
1.0
176
     0
 90
        2
176
     1
  1
strokes_ogs.tif
176
     1
290
     0
176
     1
 40
1.0
176
     1
 40
1.0
176
     1
  0
VISUALSTYLE
  5
3E
102
{ACAD_REACTORS
330
2A
102
}
330
2A
100
AcDbVisualStyle
  2
Shades of Gray
 70
    23
177
     3
291
     0
 70
    58
 90
        2
176
     1
 90
        2
176
     1
 90
        3
176
     1
 90
        0
176
     1
 40
0.6
176
     1
 40
30.0
176
     1
 62
     7
420
 16777215
176
     1
 90
        2
176
     1
 90
        2
176
     1
 62
     7
176
     1
 62
     7
176
     1
 90
        1
176
     1
 90
        1
176
     1
 40
40.0
176
     1
 90
        8
176
     1
 62
     7
176
     1
 40
1.0
176
     1
 90
        1
176
     1
 90
        6
176
     1
 90
        2
176
     1
 62
     7
176
     1
 90
        3
176
     1
 90
        0
176
     1
 90
        0
176
     1
290
     0
176
     1
 90
        1
176
     1
 40
0.0
176
     1
 90
        0
176
     1
290
     0
176
     1
290
     1
176
     1
290
     1
176
     1
290
     0
176
     1
290
     0
176
     1
290
     0
176
     1
290
     0
176
     1
290
     0
176
     1
290
     0
176
     1
 90
       50
176
     1
 40
0.0
176
     1
 40
1.0
176
     1
 90
        0
176
     1
 62
    18
420
        0
176
     1
 90
       50
176
     1
 90
        3
176
     1
 62
     5
420
      255
176
     1
290
     0
176
     1
 90
       50
176
     1
 90
       50
176
     1
 90
       50
176
     1
290
     0
176
     1
 90
       50
176
     1
 62
   256
176
     0
 40
1.0
176
     0
 90
        2
176
     1
  1
strokes_ogs.tif
176
     1
290
     0
176
     1
 40
1.0
176
     1
 40
1.0
176
     1
  0
VISUALSTYLE
  5
3F
102
{ACAD_REACTORS
330
2A
102
}
330
2A
100
AcDbVisualStyle
  2
Sketchy
 70
    24
177
     3
291
     0
 70
    58
 90
        1
176
     1
 90
        2
176
     1
 90
        2
176
     1
 90
        0
176
     1
 40
0.6
176
     1
 40
30.0
176
     1
 62
     7
420
 16777215
176
     1
 90
        2
176
     1
 90
        2
176
     1
 62
     7
176
     1
 62
     7
176
     1
 90
        1
176
     1
 90
        1
176
     1
 40
40.0
176
     1
 90
       11
176
     1
 62
     7
176
     1
 40
1.0
176
     1
 90
        1
176
     1
 90
        6
176
     1
 90
        2
176
     1
 62
     7
176
     1
 90
        6
176
     1
 90
        0
176
     1
 90
        0
176
     1
290
     0
176
     1
 90
        1
176
     1
 40
0.0
176
     1
 90
        0
176
     1
290
     0
176
     1
290
     1
176
     1
290
     1
176
     1
290
     0
176
     1
290
     0
176
     1
290
     0
176
     1
290
     0
176
     1
290
     0
176
     1
290
     0
176
     1
 90
       50
176
     1
 40
0.0
176
     1
 40
1.0
176
     1
 90
        0
176
     1
 62
    18
420
        0
176
     1
 90
       50
176
     1
 90
        3
176
     1
 62
     5
420
      255
176
     1
290
     0
176
     1
 90
       50
176
     1
 90
       50
176
     1
 90
       50
176
     1
290
     0
176
     1
 90
       50
176
     1
 62
   256
176
     0
 40
1.0
176
     0
 90
        2
176
     1
  1
strokes_ogs.tif
176
     1
290
     0
176
     1
 40
1.0
176
     1
 40
1.0
176
     1
  0
VISUALSTYLE
  5
37
102
{ACAD_REACTORS
330
2A
102
}
330
2A
100
AcDbVisualStyle
  2
Thicken
 70
    13
177
     3
291
     1
 70
    58
 90
        2
176
     1
 90
        2
176
     1
 90
        0
176
     1
 90
        0
176
     1
 40
0.6
176
     1
 40
30.0
176
     1
 62
     7
420
 16777215
176
     1
 90
        1
176
     1
 90
        4
176
     1
 62
     7
176
     1
 62
   257
176
     1
 90
        1
176
     1
 90
        1
176
     1
 40
1.0
176
     1
 90
       12
176
     1
 62
     7
176
     1
 40
1.0
176
     1
 90
        1
176
     1
 90
        6
176
     1
 90
        2
176
     1
 62
     7
176
     1
 90
        5
176
     1
 90
        0
176
     1
 90
        0
176
     1
290
     0
176
     1
 90
        1
176
     1
 40
0.0
176
     1
 90
        0
176
     1
290
     0
176
     1
290
     1
176
     1
290
     1
176
     1
290
     0
176
     1
290
     0
176
     1
290
     0
176
     1
290
     0
176
     1
290
     0
176
     1
290
     0
176
     1
 90
       50
176
     1
 40
0.0
176
     1
 40
1.0
176
     1
 90
        0
176
     1
 62
    18
420
        0
176
     1
 90
       50
176
     1
 90
        3
176
     1
 62
     5
420
      255
176
     1
290
     0
176
     1
 90
       50
176
     1
 90
       50
176
     1
 90
       50
176
     1
290
     0
176
     1
 90
       50
176
     1
 62
   256
176
     0
 40
1.0
176
     0
 90
        2
176
     1
  1
strokes_ogs.tif
176
     1
290
     0
176
     1
 40
1.0
176
     1
 40
1.0
176
     1
  0
VISUALSTYLE
  5
30
102
{ACAD_REACTORS
330
2A
102
}
330
2A
100
AcDbVisualStyle
  2
Wireframe
 70
     5
177
     3
291
     0
 70
    58
 90
        0
176
     1
 90
        2
176
     1
 90
        0
176
     1
 90
        0
176
     1
 40
0.6
176
     1
 40
30.0
176
     1
 62
     7
420
 16777215
176
     1
 90
        1
176
     1
 90
        4
176
     1
 62
     7
176
     1
 62
   257
176
     1
 90
        1
176
     1
 90
        1
176
     1
 40
1.0
176
     1
 90
        0
176
     1
 62
   257
176
     1
 40
1.0
176
     1
 90
        1
176
     1
 90
        6
176
     1
 90
        2
176
     1
 62
     7
176
     1
 90
        3
176
     1
 90
        0
176
     1
 90
        0
176
     1
290
     0
176
     1
 90
        1
176
     1
 40
0.0
176
     1
 90
        0
176
     1
290
     0
176
     1
290
     1
176
     1
290
     1
176
     1
290
     0
176
     1
290
     0
176
     1
290
     0
176
     1
290
     0
176
     1
290
     0
176
     1
290
     0
176
     1
 90
       50
176
     1
 40
0.0
176
     1
 40
1.0
176
     1
 90
        0
176
     1
 62
    18
420
        0
176
     1
 90
       50
176
     1
 90
        3
176
     1
 62
     5
420
      255
176
     1
290
     0
176
     1
 90
       50
176
     1
 90
       50
176
     1
 90
       50
176
     1
290
     0
176
     1
 90
       50
176
     1
 62
   256
176
     0
 40
1.0
176
     0
 90
        2
176
     1
  1
strokes_ogs.tif
176
     1
290
     0
176
     1
 40
1.0
176
     1
 40
1.0
176
     1
  0
VISUALSTYLE
  5
40
102
{ACAD_REACTORS
330
2A
102
}
330
2A
100
AcDbVisualStyle
  2
X-Ray
 70
    25
177
     3
291
     0
 70
    58
 90
        2
176
     1
 90
        2
176
     1
 90
        1
176
     1
 90
        1
176
     1
 40
0.5
176
     1
 40
30.0
176
     1
 62
     7
420
 16777215
176
     1
 90
        1
176
     1
 90
        0
176
     1
 62
     7
176
     1
 62
   257
176
     1
 90
        1
176
     1
 90
        1
176
     1
 40
1.0
176
     1
 90
        8
176
     1
 62
     7
176
     1
 40
1.0
176
     1
 90
        1
176
     1
 90
        6
176
     1
 90
        2
176
     1
 62
     7
176
     1
 90
        3
176
     1
 90
        0
176
     1
 90
        0
176
     1
290
     0
176
     1
 90
       13
176
     1
 40
0.0
176
     1
 90
        0
176
     1
290
     0
176
     1
290
     1
176
     1
290
     1
176
     1
290
     0
176
     1
290
     0
176
     1
290
     0
176
     1
290
     0
176
     1
290
     0
176
     1
290
     0
176
     1
 90
       50
176
     1
 40
0.0
176
     1
 40
1.0
176
     1
 90
        0
176
     1
 62
    18
420
        0
176
     1
 90
       50
176
     1
 90
        3
176
     1
 62
     5
420
      255
176
     1
290
     0
176
     1
 90
       50
176
     1
 90
       50
176
     1
 90
       50
176
     1
290
     0
176
     1
 90
       50
176
     1
 62
   256
176
     0
 40
1.0
176
     0
 90
        2
176
     1
  1
strokes_ogs.tif
176
     1
290
     0
176
     1
 40
1.0
176
     1
 40
1.0
176
     1
  0
DICTIONARYVAR
  5
468
102
{ACAD_REACTORS
330
467
102
}
330
467
100
DictionaryVariables
280
     0
  1
1:1
  0
DICTIONARYVAR
  5
470
102
{ACAD_REACTORS
330
467
102
}
330
467
100
DictionaryVariables
280
     0
  1
3.500000
  0
DICTIONARYVAR
  5
471
102
{ACAD_REACTORS
330
467
102
}
330
467
100
DictionaryVariables
280
     0
  1
acadiso.lin
  0
DICTIONARYVAR
  5
46D
102
{ACAD_REACTORS
330
467
102
}
330
467
100
DictionaryVariables
280
     0
  1
Standard
  0
DICTIONARYVAR
  5
46C
102
{ACAD_REACTORS
330
467
102
}
330
467
100
DictionaryVariables
280
     0
  1
Standard
  0
DICTIONARY
  5
469
330
6A
100
AcDbDictionary
280
     1
281
     1
  3
ACAD_ROUNDTRIP_2008_TABLESTYLE_CELLSTYLEMAP
360
46A
  0
CELLSTYLEMAP
  5
46A
102
{ACAD_REACTORS
330
469
102
}
330
469
100
AcDbCellStyleMap
 90
        3
300
CELLSTYLE
  1
TABLEFORMAT_BEGIN
 90
        5
170
     1
 91
        0
 92
    32768
 62
   257
 93
        1
300
CONTENTFORMAT
  1
CONTENTFORMAT_BEGIN
 90
        0
 91
        0
 92
        4
 93
        0
300

 40
0.0
140
1.0
 94
        5
 62
     0
340
11
144
6.0
309
CONTENTFORMAT_END
171
     1
301
MARGIN
  1
CELLMARGIN_BEGIN
 40
1.5
 40
1.5
 40
1.5
 40
1.5
 40
1.5
 40
1.5
309
CELLMARGIN_END
 94
        6
 95
        1
302
GRIDFORMAT
  1
GRIDFORMAT_BEGIN
 90
        0
 91
        1
 62
     0
 92
       -2
340
14
 93
        0
 40
0.045
309
GRIDFORMAT_END
 95
        2
302
GRIDFORMAT
  1
GRIDFORMAT_BEGIN
 90
        0
 91
        1
 62
     0
 92
       -2
340
14
 93
        0
 40
0.045
309
GRIDFORMAT_END
 95
        4
302
GRIDFORMAT
  1
GRIDFORMAT_BEGIN
 90
        0
 91
        1
 62
     0
 92
       -2
340
14
 93
        0
 40
0.045
309
GRIDFORMAT_END
 95
        8
302
GRIDFORMAT
  1
GRIDFORMAT_BEGIN
 90
        0
 91
        1
 62
     0
 92
       -2
340
14
 93
        0
 40
0.045
309
GRIDFORMAT_END
 95
       16
302
GRIDFORMAT
  1
GRIDFORMAT_BEGIN
 90
        0
 91
        1
 62
     0
 92
       -2
340
14
 93
        0
 40
0.045
309
GRIDFORMAT_END
 95
       32
302
GRIDFORMAT
  1
GRIDFORMAT_BEGIN
 90
        0
 91
        1
 62
     0
 92
       -2
340
14
 93
        0
 40
0.045
309
GRIDFORMAT_END
309
TABLEFORMAT_END
  1
CELLSTYLE_BEGIN
 90
        1
 91
        1
300
_TITLE
309
CELLSTYLE_END
300
CELLSTYLE
  1
TABLEFORMAT_BEGIN
 90
        5
170
     1
 91
        0
 92
        0
 62
   257
 93
        1
300
CONTENTFORMAT
  1
CONTENTFORMAT_BEGIN
 90
        0
 91
        0
 92
        4
 93
        0
300

 40
0.0
140
1.0
 94
        5
 62
     0
340
11
144
4.5
309
CONTENTFORMAT_END
171
     1
301
MARGIN
  1
CELLMARGIN_BEGIN
 40
1.5
 40
1.5
 40
1.5
 40
1.5
 40
1.5
 40
1.5
309
CELLMARGIN_END
 94
        6
 95
        1
302
GRIDFORMAT
  1
GRIDFORMAT_BEGIN
 90
        0
 91
        1
 62
     0
 92
       -2
340
14
 93
        0
 40
0.045
309
GRIDFORMAT_END
 95
        2
302
GRIDFORMAT
  1
GRIDFORMAT_BEGIN
 90
        0
 91
        1
 62
     0
 92
       -2
340
14
 93
        0
 40
0.045
309
GRIDFORMAT_END
 95
        4
302
GRIDFORMAT
  1
GRIDFORMAT_BEGIN
 90
        0
 91
        1
 62
     0
 92
       -2
340
14
 93
        0
 40
0.045
309
GRIDFORMAT_END
 95
        8
302
GRIDFORMAT
  1
GRIDFORMAT_BEGIN
 90
        0
 91
        1
 62
     0
 92
       -2
340
14
 93
        0
 40
0.045
309
GRIDFORMAT_END
 95
       16
302
GRIDFORMAT
  1
GRIDFORMAT_BEGIN
 90
        0
 91
        1
 62
     0
 92
       -2
340
14
 93
        0
 40
0.045
309
GRIDFORMAT_END
 95
       32
302
GRIDFORMAT
  1
GRIDFORMAT_BEGIN
 90
        0
 91
        1
 62
     0
 92
       -2
340
14
 93
        0
 40
0.045
309
GRIDFORMAT_END
309
TABLEFORMAT_END
  1
CELLSTYLE_BEGIN
 90
        2
 91
        1
300
_HEADER
309
CELLSTYLE_END
300
CELLSTYLE
  1
TABLEFORMAT_BEGIN
 90
        5
170
     1
 91
        0
 92
        0
 62
   257
 93
        1
300
CONTENTFORMAT
  1
CONTENTFORMAT_BEGIN
 90
        0
 91
        0
 92
        4
 93
        0
300

 40
0.0
140
1.0
 94
        2
 62
     0
340
11
144
4.5
309
CONTENTFORMAT_END
171
     1
301
MARGIN
  1
CELLMARGIN_BEGIN
 40
1.5
 40
1.5
 40
1.5
 40
1.5
 40
1.5
 40
1.5
309
CELLMARGIN_END
 94
        6
 95
        1
302
GRIDFORMAT
  1
GRIDFORMAT_BEGIN
 90
        0
 91
        1
 62
     0
 92
       -2
340
14
 93
        0
 40
0.045
309
GRIDFORMAT_END
 95
        2
302
GRIDFORMAT
  1
GRIDFORMAT_BEGIN
 90
        0
 91
        1
 62
     0
 92
       -2
340
14
 93
        0
 40
0.045
309
GRIDFORMAT_END
 95
        4
302
GRIDFORMAT
  1
GRIDFORMAT_BEGIN
 90
        0
 91
        1
 62
     0
 92
       -2
340
14
 93
        0
 40
0.045
309
GRIDFORMAT_END
 95
        8
302
GRIDFORMAT
  1
GRIDFORMAT_BEGIN
 90
        0
 91
        1
 62
     0
 92
       -2
340
14
 93
        0
 40
0.045
309
GRIDFORMAT_END
 95
       16
302
GRIDFORMAT
  1
GRIDFORMAT_BEGIN
 90
        0
 91
        1
 62
     0
 92
       -2
340
14
 93
        0
 40
0.045
309
GRIDFORMAT_END
 95
       32
302
GRIDFORMAT
  1
GRIDFORMAT_BEGIN
 90
        0
 91
        1
 62
     0
 92
       -2
340
14
 93
        0
 40
0.045
309
GRIDFORMAT_END
309
TABLEFORMAT_END
  1
CELLSTYLE_BEGIN
 90
        3
 91
        2
300
_DATA
309
CELLSTYLE_END
  0
ENDSEC
  0
EOF
